Oops, an error
Loading. Please wait.

Candles tab

version 5
version 5

Whole song

Interactive

Video

5,612 views 30 this week
no commentswrite comment
1 2 3 4 5
x 8
add to favorites
×
Save as Personal and add changes to this tab that will be seen only by you. Learn more ›
×
You can save this tab as Personal to edit and correct it or add notes. All changes will be seen only by you. Learn more »
launch autoscroll
font size
0
reset
how to read this tab
guitar tuner
edit
Autoscroll
slow
fast
+/-
esc
set tempo
stop
About this tab version
It is lay out better for those not wanting to pause in the middle of the song to scroll up again and it has been corrected from other versions so it sounds more like the original. Was this info helpful? Yes No
-------------------------------------------------------------------------------
                             Candles - Daughter
-------------------------------------------------------------------------------
Tabbed by: Sindenization (credit to pajamagirl19 for the tab. I just lay it out how I prefer for auto scroll
                          and changed a few things here and there.)

Tuning: Drop DG (DGDGBE)
        Drop D with A string down a step.
Capo: 4th fret

INTRO:
e|-----------------------------------------------------------------------------------|
B|--------0---------0---------0---------0---------------------------------------0----|
G|---0---------0---------0---------0-------------0---------0---------0---------------|
D|-5---5----7----7----4----4----5----5------0---------0---------0---------0----------|
A|-----------------------------------------3---3----3----3----2----2----2----2-------|
E|-----------------------------------------------------------------------------------|

e|-----------------------------------------------------------------------------------|
B|--------0---------0---------0---------0---------------------------------------0----|
G|---0---------0---------0---------0-------------0---------0---------0---------------|
D|-5---5----7----7----4----4----5----5------0---------0---------0---------0----------|
A|-----------------------------------------3---3----3----3----2----2----2----2-------|
E|-----------------------------------------------------------------------------------|

e|----------------------------------------------------------------------------|
B|----------------------------------------------------------------------------|
G|-------0--------0-------0--------0----------0-----------------0-------------|
D|---0-------0--------0--------0----------0--------0--------0--------0--------|
A|-0---0---0---0----0---0----0---0-------------------0------------------------|
E|------------------------------------7p5---5----5------5p2---2----2---2------|

e|------------------------------------------------------------------------------------|
B|---------------------0------------------------------------0---------0---------------|
G|--------0---------0-------------0---------------------------0---------0----0--------|
D|----0--------0---------0-----0----0----0-------0-----------------------------0------|
A|------0---0-----0---------0----------0-----------------------------------0-----0----|
E|-2p0---------------------------------------7p5----5-5-2--------2--0-----------------|

VERSE 1:
e|-----------------------------------------------------------------------------------|
B|--------0---------0---------0---------0---------------------------------------0----|
G|---0---------0---------0---------0-------------0---------0---------0---------------|
D|-5---5----7----7----4----4----5----5------0---------0---------0---------0----------|
A|-----------------------------------------3---3----3----3----2----2----2----2-------|
E|-----------------------------------------------------------------------------------|

e|-----------------------------------------------------------------------------------|
B|--------0---------0---------0---------0---------------------------------------0----|
G|---0---------0---------0---------0-------------0---------0---------0---------------|
D|-5---5----7----7----4----4----5----5------0---------0---------0---------0----------|
A|-----------------------------------------3---3----3----3----2----2----2----2-------|
E|-----------------------------------------------------------------------------------|

e|-----------------------------------------------------------------------------------|
B|--------0---------0---------0---------0---------------------------------------0----|
G|---0---------0---------0---------0-------------0---------0---------0---------------|
D|-5---5----7----7----4----4----5----5------0---------0---------0---------0----------|
A|-----------------------------------------3---3----3----3----2----2----2----2-------|
E|-----------------------------------------------------------------------------------|

e|-----------------------------------------------------------------------------------|
B|--------0---------0---------0---------0---------------------------------------0----|
G|---0---------0---------0---------0-------------0---------0---------0---------------|
D|-5---5----7----7----4----4----5----5------0---------0---------0---------0----------|
A|-----------------------------------------3---3----3----3----2----2----2----2-------|
E|-----------------------------------------------------------------------------------|

e|------------------------------------------------------------------------------|
B|------------------------------------------------------------------------------|
G|-------0--------0--------0--------0-------------------------------------------|
D|---0--------0-------0--------0------------------------------------------------|
A|-0---0----0---0---0---0----0---0----------------------------------------------|
E|------------------------------------------------------------------------------|

CHORUS:
e|------------------------------------------------------------------------------|
B|------0--------0--------0--------0---------0---------0--------0--------0------|
G|--0--------0--------0--------0--------0---------0---------0--------0----------|
D|----0--------0--------0--------0--------0---------0---------0--------0--------|
A|------------------------------------------------------------------------------|
E|-2-------2--------4--------4--------5---------5---------5--------5------------|

e|------------------------------------------------------------------------------|
B|------0--------0--------0--------0---------0---------0---------3---------3----|
G|--0--------0--------0--------0--------0---------0---------0----0-----0---0----|
D|----0--------0--------0--------0--------0---------0---------0--------0--------|
A|------------------------------------------------------------------------------|
E|-2-------2--------4--------4--------5---------5---------5--------5------------|

e|------------------------------------------------------------------------------|
B|------0--------0--------0--------0---------0---------0--------0--------0------|
G|--0--------0--------0--------0--------0---------0---------0--------0----------|
D|----0--------0--------0--------0--------0---------0---------0--------0--------|
A|------------------------------------------------------------------------------|
E|-2-------2--------4--------4--------5---------5---------5--------5------------|

e|-------------------------|
B|--0--0--0----0--0--0-----|  
G|-------------------------|
D|-------------------------|
A|-------------------------|
E|--2--4--5----2--4--5-----|

INTERLUDE:
e|--------------------------------------------------------------------------|
B|--------------------------------------------------------------------------|
G|---0---0---0---0---0---0---0---0---0---0---0---0---0---0---0---0----------|
D|----------------------------------------------------0-------0---0---------|
G|--------------------------------------------------------------------------|
D|-2---2---2---2---0---0---0---0---5---5---5---5---5---5---5---5------------|

e|--------------------------------------------------------------------------|
B|--------------------------------------------------------------------------|
G|---0---0---0---0---0---0---0---0---0---0---0---0---0---0---0---0----------|
D|-------0---0---0-------------------0----------------0---0---0---0---------|
G|--------------------------------------------------------------------------|
D|-2---2---2---2---0---0---0---0---5---5---5---5---5---5---5---5------------|

e|-------------------------------------------------------------------------|
B|-------------------------------------------------------------------------|
G|---0---0---0---0---0---0---0---0---0---0---0---0---0---0---0---0---------|
D|-------0---0---0--------------------0--0---0----0---0---0---0---0--------|  
G|-------------------------------------------------------------------------|
D|-2---2---2---2---0---0---0---0---5---5---5---5---5---5---5---5-----------|

e|-------------------------------------------------------------------------|
B|-------------------------------------------------------------------------|
G|---0---0---0---0---0---0---0---0---0---0---0---0---0---0---0---0---------|
D|-------0---0---0--------------------0--0---0----0---0---0---0---0--------|  
G|-------------------------------------------------------------------------|
D|-2---2---2---2---0---0---0---0---5---5---5---5---5---5---5---5-----------|

VERSE 2:
e|-----------------------------------------------------------------------------------|
B|--------0---------0---------0---------0---------------------------------------0----|
G|---0---------0---------0---------0-------------0---------0---------0---------------|
D|-5---5----7----7----4----4----5----5------0---------0---------0---------0----------|
A|-----------------------------------------3---3----3----3----2----2----2----2-------|
E|-----------------------------------------------------------------------------------|

e|-----------------------------------------------------------------------------------|
B|--------0---------0---------0---------0---------------------------------------0----|
G|---0---------0---------0---------0-------------0---------0---------0---------------|
D|-5---5----7----7----4----4----5----5------0---------0---------0---------0----------|
A|-----------------------------------------3---3----3----3----2----2----2----2-------|
E|-----------------------------------------------------------------------------------|

e|-----------------------------------------------------------------------------------|
B|--------0---------0---------0---------0---------------------------------------0----|
G|---0---------0---------0---------0-------------0---------0---------0---------------|
D|-5---5----7----7----4----4----5----5------0---------0---------0---------0----------|
A|-----------------------------------------3---3----3----3----2----2----2----2-------|
E|-----------------------------------------------------------------------------------|

e|-----------------------------------------------------------------------------------|
B|--------0---------0---------0---------0---------------------------------------0----|
G|---0---------0---------0---------0-------------0---------0---------0---------------|
D|-5---5----7----7----4----4----5----5------0---------0---------0---------0----------|
A|-----------------------------------------3---3----3----3----2----2----2----2-------|
E|-----------------------------------------------------------------------------------|

e|------------------------------------------------------------------------------|
B|------------------------------------------------------------------------------|
G|-------0--------0--------0--------0-------------------------------------------|
D|---0--------0-------0--------0------------------------------------------------|
A|-0---0----0---0---0---0----0---0----------------------------------------------|
E|------------------------------------------------------------------------------|

CHORUS:
e|------------------------------------------------------------------------------|
B|------0--------0--------0--------0---------0---------0--------0--------0------|
G|--0--------0--------0--------0--------0---------0---------0--------0----------|
D|----0--------0--------0--------0--------0---------0---------0--------0--------|
A|------------------------------------------------------------------------------|
E|-2-------2--------4--------4--------5---------5---------5--------5------------|

e|------------------------------------------------------------------------------|
B|------0--------0--------0--------0---------0---------0---------3---------3----|
G|--0--------0--------0--------0--------0---------0---------0----0-----0---0----|
D|----0--------0--------0--------0--------0---------0---------0--------0--------|
A|------------------------------------------------------------------------------|
E|-2-------2--------4--------4--------5---------5---------5--------5------------|

e|------------------------------------------------------------------------------|
B|------0--------0--------0--------0---------0---------0--------0--------0------|
G|--0--------0--------0--------0--------0---------0---------0--------0----------|
D|----0--------0--------0--------0--------0---------0---------0--------0--------|
A|------------------------------------------------------------------------------|
E|-2-------2--------4--------4--------5---------5---------5--------5------------|

e|-------------------------|
B|--0--0--0----0--0--0-----|  
G|-------------------------|
D|-------------------------|
A|-------------------------|
E|--2--4--5----2--4--5-----|

INTERLUDE:
e|--------------------------------------------------------------------------|
B|--------------------------------------------------------------------------|
G|---0---0---0---0---0---0---0---0---0---0---0---0---0---0---0---0----------|
D|----------------------------------------------------0-------0---0---------|
G|--------------------------------------------------------------------------|
D|-2---2---2---2---0---0---0---0---5---5---5---5---5---5---5---5------------|

e|--------------------------------------------------------------------------|
B|--------------------------------------------------------------------------|
G|---0---0---0---0---0---0---0---0---0---0---0---0---0---0---0---0----------|
D|-------0---0---0-------------------0----------------0---0---0---0---------|
G|--------------------------------------------------------------------------|
D|-2---2---2---2---0---0---0---0---5---5---5---5---5---5---5---5------------|

e|-------------------------------------------------------------------------|
B|-------------------------------------------------------------------------|
G|---0---0---0---0---0---0---0---0---0---0---0---0---0---0---0---0---------|
D|-------0---0---0--------------------0--0---0----0---0---0---0---0--------|  
G|-------------------------------------------------------------------------|
D|-2---2---2---2---0---0---0---0---5---5---5---5---5---5---5---5-----------|

e|-------------------------------------------------------------------------|
B|-------------------------------------------------------------------------|
G|---0---0---0---0---0---0---0---0---0---0---0---0---0---0---0---0---------|
D|-------0---0---0--------------------0--0---0----0---0---0---0---0--------|  
G|-------------------------------------------------------------------------|
D|-2---2---2---2---0---0---0---0---5---5---5---5---5---5---5---5-----------|

e|--------------------------------------------------------------------------|
B|--------------------------------------------------------------------------|
G|---0---0---0---0---0---0---0---0---0---0---0---0---0---0---0---0----------|
D|----------------------------------------------------0-------0---0---------|
G|--------------------------------------------------------------------------|
D|-2---2---2---2---0---0---0---0---5---5---5---5---5---5---5---5------------|

e|--------------------------------------------------------------------------|
B|--------------------------------------------------------------------------|
G|---0---0---0---0---0---0---0---0---0---0---0---0---0---0---0---0----------|
D|-------0---0---0-------------------0----------------0---0---0---0---------|
G|--------------------------------------------------------------------------|
D|-2---2---2---2---0---0---0---0---5---5---5---5---5---5---5---5------------|

e|-------------------------------------------------------------------------|
B|-------------------------------------------------------------------------|
G|---0---0---0---0---0---0---0---0---0---0---0---0---0---0---0---0---------|
D|-------0---0---0--------------------0--0---0----0---0---0---0---0--------|  
G|-------------------------------------------------------------------------|
D|-2---2---2---2---0---0---0---0---5---5---5---5---5---5---5---5-----------|

e|-------------------------------------------------------------------------|
B|-------------------------------------------------------------------------|
G|---0---0---0---0---0---0---0---0---0---0---0---0---0---0---0---0---------|
D|-------0---0---0--------------------0--0---0----0---0---0---0---0--------|  
G|-------------------------------------------------------------------------|
D|-2---2---2---2---0---0---0---0---5---5---5---5---5---5---5---5-----------|

CHORUS:
e|-------------------------------------------------------------------------------|
B|-------0--------0--------0--------0--------0----------0---------0--------0-----|
G|---0-------0--------0--------0--------0----------0---------0---------0---------|
D|-2---2---2---2----4---4----4---4----0---0-----0----0----0----0----0---0--------|
A|-------------------------------------------------------------------------------|
E|-------------------------------------------------------------------------------|

e|-------------------------------------------------------------------------------|
B|-------0--------0--------0--------0--------3----------3---------3---------3----|
G|---0-------0--------0--------0--------0----0-----0----0----0----0----0---0-----|
D|-2---2---2---2----4---4----4---4----0---0-----0----0----0----0----0---0--------|
A|-------------------------------------------------------------------------------|
E|-------------------------------------------------------------------------------|

e|-------------------------------------------------------------------------------|
B|-------0--------0--------0--------0--------0----------0---------0--------0-----|
G|---0-------0--------0--------0--------0----------0---------0---------0---------|
D|-2---2---2---2----4---4----4---4----0---0-----0----0----0----0----0---0--------|
A|-------------------------------------------------------------------------------|
E|-------------------------------------------------------------------------------|

e|-------------------------------------------------------------------------------|
B|-------0--------0--------0--------0--------0----------0---------0--------0-----|
G|---0-------0--------0--------0--------0----------0---------0---------0---------|
D|-2---2---2---2----4---4----4---4----0---0-----0----0----0----0----0---0--------|
A|-------------------------------------------------------------------------------|
E|-------------------------------------------------------------------------------|
e|------------|
B|--0--0--0---|  
G|------------|
D|------------|
A|------------|
E|--2--4--5---|

INTERLUDE:
e|--------------------------------------------------------------------------|
B|--------------------------------------------------------------------------|
G|---0---0---0---0---0---0---0---0---0---0---0---0---0---0---0---0----------|
D|----------------------------------------------------0-------0---0---------|
G|--------------------------------------------------------------------------|
D|-2---2---2---2---0---0---0---0---5---5---5---5---5---5---5---5------------|

e|--------------------------------------------------------------------------|
B|--------------------------------------------------------------------------|
G|---0---0---0---0---0---0---0---0---5---5---5---5---5---5---5---5----------|
D|-------0---0---0-------------------0----------------0---0---0---0---------|
G|--------------------------------------------------------------------------|
D|-2---2---2---2---0---0---0---0---5---5---5---5---5---5---5---5------------|

e|-------------------------------------------------------------------------|
B|-------------------------------------------------------------------------|
G|---0---0---0---0---0---0---0---0---0---0---0---0---0---0---0---0---------|
D|-------0---0---0--------------------0--0---0----0---0---0---0---0--------|  
G|-------------------------------------------------------------------------|
D|-2---2---2---2---0---0---0---0---5---5---5---5---5---5---5---5-----------|

e|-------------------------------------------------------------------------|
B|-------------------------------------------------------------------------|
G|---0---0---0---0---0---0---0---0---0---0---0---0---0---0---0---0---------|
D|-------0---0---0--------------------0--0---0----0---0---0---0---0--------|  
G|-------------------------------------------------------------------------|
D|-2---2---2---2---0---0---0---0---5---5---5---5---5---5---5---5-----------|

            
            
Suggest correction
Creating personal tab
Creating personal tab
You can edit any tab online and save it as your Personal.

You can edit, replace or remove any tab part or add personal notes – all changes will be seen only by you.

Personal tabs can be accessed anytime from any device, even offline.
Learn more »
comments
print report bad tab
guest
You may want to rate the tab now too:
select rating
Wanna post a correction for this tab? Suggest correction