Oops, an error
Loading. Please wait.

How Acoustic tab

version 1
version 1

Whole song

3,250 views 114 this week
no commentswrite comment
1 2 3 4 5
x 4
add to favorites
×
Save as Personal and add changes to this tab that will be seen only by you. Learn more ›
×
You can save this tab as Personal to edit and correct it or add notes. All changes will be seen only by you. Learn more »
launch autoscroll
font size
0
reset
how to read this tab
guitar tuner
edit
Autoscroll
slow
fast
+/-
esc
set tempo
stop
From 2016 KEXP live session. This was as close as I could make out, but there will probably be errors, so
submit any corrections. 

TUNING: Drop D - DADGBe - You won't be playing B/e string.

/ = slide up    \ = slide down   () = Bend



[Intro]

e|---------------------------------------------------------------------------------|
B|---------------------------------------------------------------------------------|
G|-----------------------11-11-11\(9)--2/4---11-11-11\(9)--2/4---11-11-11\(9)--2/4-|
D|-----------------------0--0--0---0---0-----0--0--0---0---0-----0--0--0---0---0---|
A|-----------------------0--0--0---0---0-----0--0--0---0---0-----0--0--0---0---0---|
D|---12--7--5/12--7--5---12-12-12------4/5---12-12-12------4/5---12-12-12------4/5-|

e|---------------------------------------------------------------------------------|
B|---------------------------------------------------------------------------------|
G|---11-11-11\(9)--2/4-------------------------------------------------------------|
D|---0--0--0---0---0---------------------------------------------------------------|
A|---0--0--0---0---0---------------------------------------------------------------|
D|---12-12-12------4/5-------------------------------------------------------------|


[verse]

e|---------------------------------------------------------------------------------|
B|---------------------------------------------------------------------------------|
G|---------------------------------------------------------------------------------|
D|---------------------------------------------------------------------------------|
A|---------------------------------------------------------------------------------|
D|---/12-12-12-12-12-12-12-12--7-7-7-7--5-5-5-5/-----------------------------------|  X4

e|---------------------------------------------------------------------------|
B|---------------------------------------------------------------------------|
G|---11-11-11\(9)--2/4---11-11-11\(9)--2/4-----------------------------------|
D|---0--0--0---0---0-----0--0--0---0---0-------------------------------------|
A|---0--0--0---0---0-----0--0--0---0---0-------------------------------------|
E|---12-12-12------4/5---12-12-12------4/5-----------------------------------|


[Chorus]

e|---------------------------------------------------------------------------|
B|---------------------------------------------------------------------------|
G|-----4---4/--7\--6---------------------------------------------------------|
D|----0---0---0---0----------------------------------------------------------|  X4
A|---------------------------------------------------------------------------|
E|---5---5--/9--\7-----------------------------------------------------------|

e|---------------------------------------------------------------------------|
B|---------------------------------------------------------------------------|
G|---11-11-11\(9)--2/4---11-11-11\(9)--2/4-----------------------------------|
D|---0--0--0---0---0-----0--0--0---0---0-------------------------------------|  X2
A|---0--0--0---0---0-----0--0--0---0---0-------------------------------------|
E|---12-12-12------4/5---12-12-12------4/5-----------------------------------|

[Verse]

e|---------------------------------------------------------------------------|
B|---------------------------------------------------------------------------|
G|---------------------------------------------------------------------------|
D|---------------------------------------------------------------------------|
A|---------------------------------------------------------------------------|
E|---/12-12-12-12-12-12-12-12--7-7-7-7--5-5-5-5/-----------------------------|  X4

e|---------------------------------------------------------------------------|
B|---------------------------------------------------------------------------|
G|---11-11-11-11-11-11-11-11\6-6-6-6\4-4-4-4---------------------------------|
D|---0--0--0--0--0--0--0--0--0-0-0-0-0-0-0-0---------------------------------|
A|---0--0--0--0--0--0--0--0--0-0-0-0-0-0-0-0---------------------------------|  X2
E|---12-12-12-12-12-12-12-12\7-7-7-7\5-5-5-5---------------------------------|

[Verse]

e|---------------------------------------------------------------------------|
B|---------------------------------------------------------------------------|
G|---4-4-4-4/7-7-7-7\6-6-6-6\4-4-4-4-----------------------------------------|
D|---0-0-0-0-0-0-0-0-0-0-0-0-0-0-0-0-----------------------------------------|
A|---0-0-0-0-0-0-0-0-0-0-0-0-0-0-0-0-----------------------------------------|  X2
E|---5-5-5-5/9-9-9-9\7-7-7-7\5-5-5-5-----------------------------------------|

e|---------------------------------------------------------------------------|
B|---------------------------------------------------------------------------|
G|---11-11-11\(9)--2/4---11-11-11\(9)--2/5-----------------------------------|
D|---0--0--0---0---0-----0--0--0---0---0-------------------------------------| 
A|---0--0--0---0---0-----0--0--0---0---0-------------------------------------|
E|---12-12-12------4/5---12-12-12------4/6-----------------------------------|

[Chorus]

e|---------------------|      |---------------------|
B|---------------------|      |---------------------|
G|-----4---4/--7\--6---|      |-----4-4\--2/---5----|
D|----0---0---0---0----|  X4  |----0-0---0----0-----|
A|---------------------|      |---------------------|
E|---5---5--/9--\7-----|      |---5-5--\4--/-6------|

e|---------------------|    
B|---------------------|      
G|-----4---4/--7\--6---|    
D|----0---0---0---0----|  X3
A|---------------------|      
E|---5---5--/9--\7-----|

e|-----------------------------------------------------------------------------------|
B|-----------------------------------------------------------------------------------|
G|---11-11-11\(9)--2/4---11-11-11\(9)--2/4---11-11-11\(9)--2/4---11-11-11\(9)--2/4---|
D|---0--0--0---0---0-----0--0--0---0---0-----0--0--0---0---0-----0--0--0---0---0-----|
A|---0--0--0---0---0-----0--0--0---0---0-----0--0--0---0---0-----0--0--0---0---0-----|
D|---12-12-12------4/5---12-12-12------4/5---12-12-12------4/5---12-12-12------4/5---|




************************************

| x   Dead note
| g   Grace note
| (n) Ghost note
| h   Hammer-on
| p   Pull-off
| r   Release
| >   Accented note
| t   Tapping
| b   Bend
| br  Bend release
| pb  Pre-bend
| pbr Pre-bend release
| /   Slide up
| \   Slide down
| ~   Vibrato
| s   Slap
| P   Pop
| PM  Palm mute
| TR  Trill
| N   Tremolo

************************************

            
            
Suggest correction
Creating personal tab
Creating personal tab
You can edit any tab online and save it as your Personal.

You can edit, replace or remove any tab part or add personal notes – all changes will be seen only by you.

Personal tabs can be accessed anytime from any device, even offline.
Learn more »
comments
print report bad tab
guest
Wanna post a correction for this tab? Suggest correction