Oops, an error
Loading. Please wait.
We have Chord Pro version of Over You.
It's the closest thing you can get to the original song and it has interactive parts. Check out the tab »
×
28,771 views 9 this week
7 commentsread comments
1 2 3 4 5
x 6
add to favorites
×
Save as Personal and add changes to this tab that will be seen only by you. Learn more ›
×
You can save this tab as Personal to edit and correct it or add notes. All changes will be seen only by you. Learn more »
launch autoscroll
font size
0
reset
how to read this tab
guitar tuner
edit
Autoscroll
slow
fast
+/-
esc
set tempo
stop
Author
Difficulty
Artist: Daughtry
Album: Daughtry
Song: Over You
Tabber: m Emmer 0019

Here are the two solos in Daughtry's song "Over You"
The first solo is after the first chorus.
Tuning: 1/2 Step Down

"THE DAY I THOUGHT I'D NEVER GET THROUGH,
I GOT OVER YOU!"
(Some distortion effects) NOTE: This does not symbolize that this whole solo is one
measure. Timing needs to be figured out on your own.
eb|-------------------------------------------|
Bb|-10-9---10-9-------------------------------|
Gb|------9------9-11-13-12-11-9--11~-9--------|
Db|-----------------------------------9b-9r---|
Ab|-------------------------------------------|
Eb|-------------------------------------------|


The second solo comes after the second chorus
(Distortion) NOTE: This does not symbolize that this second solo is only two measures
long.  You need to figure out the timing by listening to the song.
eb|------------------------------------------|
Bb|-10-9---10-9------------------------------|
Gb|------9------9-11-13-12~-12s16-14~-12s11--|
Db|------------------------------------------|
Ab|------------------------------------------|
Eb|------------------------------------------|

eb|-----------------------------------------------------------|
Bb|------17~----17~----17s19-17----17~----17~----17s19-17-----|
Gb|-16s15----15-----15----------14-----14-----14----------13~-|
Db|-----------------------------------------------------------|
Ab|-----------------------------------------------------------|
Eb|-----------------------------------------------------------|

This is a fairly easy song and with some practice you should be able to play this
perfectly.  When I play it, it sounds just like the song. 
ALSO!, if you want to only play the solos with standard tuning, just move the fret number
down one. IE: 10 becomes a 9, 9 becomes an 8..etc.

GOOD LUCK ON THIS TAB!! ANY QUESTIONS? EMAIL ME AT hockeymasta009@yahoo.com

            
            
Suggest correction
Creating personal tab
Creating personal tab
You can edit any tab online and save it as your Personal.

You can edit, replace or remove any tab part or add personal notes – all changes will be seen only by you.

Personal tabs can be accessed anytime from any device, even offline.
Learn more »
comments
print report bad tab
7 comments total. Showing first comments.
0 reply
Guitardude22 10 Nov 23, 2007 07:17 PM

this isnt even close

-2 reply
m Emmer 0019 47 Nov 24, 2007 01:32 PM

maybe because you are playing it wrong.
i know for a fact this is correct

+1 reply
brokenanthem 50 Dec 11, 2007 01:20 PM

guitardude you're an idiot. play it with the song and make sure you're a half step down, it's right. good work emmer

guest
You may want to rate the tab now too:
select rating
Wanna post a correction for this tab? Suggest correction