Oops, an error
Loading. Please wait.

September tab

version 1
version 1

Whole song

Interactive

47,328 views 36 this week
1 commentread comment
1 2 3 4 5
x 5
add to favorites
×
Save as Personal and add changes to this tab that will be seen only by you. Learn more ›
×
You can save this tab as Personal to edit and correct it or add notes. All changes will be seen only by you. Learn more »
launch autoscroll
font size
0
reset
how to read this tab
guitar tuner
edit
Autoscroll
slow
fast
+/-
esc
set tempo
stop
I believe the song is dropped half-a-step down, Eb Ab Db Gb Bb Eb.

This is my first tab. I have put in a few requests for the song,
but I finally decided to sit down with it and give my interpretation
as a base-outline. I'm sorry that I don't have the chords or the
lead-guitar. This is the rhythm that repeats throughout most of
the song. If someone could build off of my tab, submit comments
or corrections, it would be greatly appreciated.

I figure I would get this out there so we could try to play
this awesome song. Thank you, and good luck!

Intro/verse 1&2:

eb|-------------------------------------------0-----------------------|
Bb|------1-------1-------1----------1-------1---1---------1-------1---|
Gb|----0---0---0---0---0---0---0--0---0---0---------0---0---0---0---0-|
Db|--------------------------0--------------------0-------------------|
Ab|-------------------------------------------------------------------|
Eb|--3-------2-------0-----------2------0-------------3-------2-------|


eb|-------0---------------0-----|
Bb|-----1---1---1------1------1-|
Gb|---0-------0------0------0---|
Db|----------------0------------|
Ab|-----------------------------|
Eb|-3---------------------------|


Its a little fuzzy at the end, but I think I got the basics. Again, feedback and 
are most welcome.

            
            
Suggest correction
Creating personal tab
Creating personal tab
You can edit any tab online and save it as your Personal.

You can edit, replace or remove any tab part or add personal notes – all changes will be seen only by you.

Personal tabs can be accessed anytime from any device, even offline.
Learn more »
comments
print report bad tab
1 comment total.
0 reply
ImprovGuitarist 10 May 16, 2017 07:31 PM

Nice tab! It's about 90% perfect, think the tunings a bit off and I would add a couple of notes in there, but other than that great job!

guest
You may want to rate the tab now too:
select rating
Wanna post a correction for this tab? Suggest correction