Oops, an error
Loading. Please wait.

Headlights tab

1,637 views 15 this week
no commentswrite comment
1 2 3 4 5
x 7
add to favorites
×
Save as Personal and add changes to this tab that will be seen only by you. Learn more ›
×
You can save this tab as Personal to edit and correct it or add notes. All changes will be seen only by you. Learn more »
launch autoscroll
font size
0
reset
how to read this tab
guitar tuner
edit
Autoscroll
slow
fast
+/-
esc
set tempo
stop
First Tab! Hope You all enjoy!

-------------------------------------------------------------------------------
                             Headlights - Dave Barnes
-------------------------------------------------------------------------------
Tabbed by: Andrew Luiken
E-mail: Drewluik@gmail.com

Tuning: Standard
Capo: 2

Intro
e|-----------------------------------------------------------------------------------|
B|-----------------------------------------------------------------------------------|
G|-------0h2-4-----0-----0--------0h2-4-----0-----0----0h2-2---0-0---2h4p2-0---------|
D|-0------------4-----2-----0------------4-----2-----0-------0-----0---------2h4p2-0-|
A|---------------------------------------------------3-------3-----3---------3-------|
E|-3-3-3-3------3-----3-----3-3-3-3------3-----3-------------------------------------|

e|-------------------------------------------------------------------------|
B|-------------------------------------------------------------------------|
G|-------0h2-4---------0--------0--------0h2-----------4------0-------0----|
D|-0----------------4--------2-----0-----------------------4-----2---------|
A|-------------------------------------------------------------------------|
E|-3-3-3-3----------3--------3-----3-3-3-3-----------------3-----3---------|
         Summertime midnight getaway.....I was fallen' for every word you'd 

e|-----------------------------------|
B|-----------------------------------|
G|---0h2-2---0-0----2h4p2-0----------|
D|-0-------0------0----------2h4p2-0-|
A|-3-------3------3----------3-------|
E|-----------------------------------|
   say...

e|--------------------------------------------------------------------------|
B|--------------------------------------------------------------------------|
G|-------0h2--------4--------0--------0------------0h2-4---------0--------0-|
D|-0--------------------4---------2----------0-----------4-------------2----|
A|--------------------------------------------------------------------------|
E|-3-3-3-3--------------3---------3----------3-3-3-3-----3-------------3----|
         I'd follow the moon between the pines.....every mile you were on my 

e|-----------------------------------|
B|-----------------------------------|
G|---0h2-2---0-0----2h4p2-0----------|
D|-0-------0------0----------2h4p2-0-|
A|-3-------3------3----------3-------|
E|-----------------------------------|
   mind...

Chorus:

  C         D     G
Oh, We were younger 
          C                       D
That was way back before you were mine
    C                      Em                      C      D
I remember those days when love kept us waiting all night

For Headlights

e|--------------------------------------------------|
B|--------------------------------------------------|
G|-------0h2-4-----0-----0--------0h2-4-----0-----0-|
D|-0------------4-----2-----0------------4-----2----|
A|--------------------------------------------------|
E|-3-3-3-3------3-----3-----3-3-3-3------3-----3----|

e|--------------------------------------------------------------------|
B|--------------------------------------------------------------------|
G|-------0h2-----4-------0--------0---------0h2---4----------0------0-|
D|-0----------------4--------2--------0----------------4--------2-----|
A|--------------------------------------------------------------------|
E|-3-3-3-3----------3--------3--------3-3-3-3----------3--------3-----|
         With every sweet Magnolia kiss.....hello goodbyes hung on our

e|-----------------------------------|
B|-----------------------------------|
G|---0h2-2---0-0----2h4p2-0----------|
D|-0-------0------0----------2h4p2-0-|
A|-3-------3------3----------3-------|
E|-----------------------------------|
    lips...

e|------------------------------------------------------------------------------------|
B|------------------------------------------------------------------------------------|
G|-------0h2-----------4------0-----------0----------0h2--------4----------0--------0-|
D|-0----------------------4--------2-----------0--------------------4------------2----|
A|---------------------------------------------------------------------------------=--|
E|-3-3-3-3----------------3--------3-----------3-3-3-3--------------3------------3----|
         The beginning of us those swinging doors....hearts not the same as they were 

e|-----------------------------------|
B|-----------------------------------|
G|---0h2-2---0-0----2h4p2-0----------|
D|-0-------0------0----------2h4p2-0-|
A|-3-------3------3----------3-------|
E|-----------------------------------|
   before...

Chorus:

  C         D     G
Oh, We were younger 
          C                       D
That was way back before you were mine
    C                      Em                      C      D
I remember those days when love kept us waiting all night

For Headlights

Bridge
e|--------------------------------------------------------------------|
B|--------------------------------------------------------------------|
G|---2-0----0---0-------2-0-4-0----0---0--2-0---0---0----0----2--0--2-|
D|-0------4---2----0--0----------4---2--------3---2----0----0----0--0-|
A|-3------3---3----3----------------------3---3---3----3--------------|
E|--------------------3-----3----3---3----------------------2-------2-|

Chorus:

  C         D     G
Oh, We were younger 
          C                       D
That was way back before you were mine
    C                      Em                      C      D
I remember those days when love kept us waiting all night

For Headlights

e|---------------------------------------------------------------------------|
B|---------------------------------------------------------------------------|
G|-------0h2-4-----0-----0--------0h2-4-----0-----0--------0h2-4----0---0----|
D|-0------------4-----2-----0------------4-----2-----0------------4---2----0-|
A|---------------------------------------------------------------------------|
E|-3-3-3-3------3-----3-----3-3-3-3------3-----3-----3-3-3-3------3---3----3-|


************************************

| /   slide up
| \   slide down
| h   hammer-on
| p   pull-off
| ~   vibrato
| +   harmonic
| x   Mute note
| b   Bend
| pb  Pre-bend
| br  Bend release
| pbr Pre-bend release
| brb Bend release bend

************************************

            
            
Suggest correction
Creating personal tab
Creating personal tab
You can edit any tab online and save it as your Personal.

You can edit, replace or remove any tab part or add personal notes – all changes will be seen only by you.

Personal tabs can be accessed anytime from any device, even offline.
Learn more »
comments
print report bad tab
guest
You may want to rate the tab now too:
select rating
Wanna post a correction for this tab? Suggest correction