Oops, an error
Loading. Please wait.

Little Lies chords

version 4
version 4

Whole song

1,452 views 1 this week
2 commentsread comments
1 2 3 4 5
x 3
add to favorites
×
Save as Personal and add changes to this tab that will be seen only by you. Learn more ›
×
You can save this tab as Personal to edit and correct it or add notes. All changes will be seen only by you. Learn more »
launch autoscroll
font size
0
reset
transpose
0
reset
display chords
guitar tuner
edit
Autoscroll
slow
fast
+/-
esc
set tempo
stop
Difficulty
Strumming
There is no strumming pattern for this song yet. and get +5 IQ
Little Lies by Dave Barnes


Db = 4-4-6-6-6-4-|
Ab = 4-6-6-5-4-4-|
Bbm= 6-8-8-6-6-6-|
Gb = 2-4-4-3-2-2-|


********************************


SOLO
e--------------------------------------------------------------------------------|
B---| 000-000-2/4 |--------------------------------------------------------------|
G------------------|444-444-4/6-111-111-3/4 |------------------------------------|
D--------------------------------------------| 222-22222-4/6/4 |-----------------|
A--------------------------------------------------------------------------------|
E--------------------------------------------------------------------------------|

Intro:
Db-Ab-Bbm-Gb 2X - Db-Ab-Bb

Verse 1: Db-Ab-Bbm-Gb
Everything is beautiful,
cotton fields, the open road.
The radio plays a song,
we both know we don't sing along.

Chorus: Db-Ab-Bbm-Gb
La la la la la la la these little lies
La la la la la la la these little lies
La la la la la la la these little lies
La la la la la la la these little lies

 Verse 2: Db-Ab-Bbm-Gb
 Words can be daffodils
 or a fire in an open field
I'm sittin here in the ash
These stupid words I can't take back

Chorus: Db-Ab-Bbm-Gb
La la la la la la la these little lies
La la la la la la la these little lies
La la la la la la la these little lies
La la la la la la la these little lies

Bridge: Db-Ab-Db-Gb-Ab
There's a devil on my shoulder baby oohooh
And I believe too many things he says
Yeah yeah yeah
I'm fighting these fears
As I find them true
And I'm sorry for hurting you

 SOLO: B- 000-000-2/4, G- 444-444-4/6-111-111-3/4, D- 222-22222-4/6/4

Chorus: Db-Ab-Bbm-Gb
La la la la la la la these little lies
La la la la la la la these little lies
La la la la la la la these little lies
La la la la la la la these little lies

Not my original work.  Mostly copied from other tabs and sources, but put together for 
easy use. No capo needed.

            
            
Suggest correction
Creating personal tab
Creating personal tab
You can edit any tab online and save it as your Personal.

You can edit, replace or remove any tab part or add personal notes – all changes will be seen only by you.

Personal tabs can be accessed anytime from any device, even offline.
Learn more »
Give kudos to tab author, rate the tab!
1 2 3 4 5
comments
print report bad tab
2 comments total.
0 reply
dewis1 280 Aug 18, 2013 12:13 PM

This is what I hear for the Bridge:

Bridge: Ab-Db-Gb-Db-(Bbm 3rd run)-Ab
There's a devil on my shoulder baby oohooh
And I believe too many things he says
Yeah yeah yeah
I'm fighting these fears
As I find them true
And I'm sorry for hurting you

Nice joB!

0 reply
dewis1 280 Aug 18, 2013 04:43 PM

Alternative:
Capo on 1st:

Db = 3-3-2-0-1-0-|
Ab = 3-5-5-4-3-3-|
Bbm= 5-7-7-5-5-5-|
Gb = 1-3-3-2-1-1-|
DUDUDU
F--00---------------33--------------55-X-55---111111-----|
C--11---------------33--------------55-X-55---111111-----|
Ab-00---------------44--------------55-X-55---222222-----|
Eb-22-------5-5h7---55--------------77-X-77---333333-----|
Bb-33--3/7----------55--3h5-3--5/7--77-X-77---333333-----|
F--33---------------33--------------55-X-55---111111-----|

guest
Wanna post a correction for this tab? Suggest correction