Oops, an error
Loading. Please wait.

Little Things bass

31 views 1 this week
no commentswrite comment
1 2 3 4 5
3 more votes to show rating
add to favorites
×
Save as Personal and add changes to this tab that will be seen only by you. Learn more ›
×
You can save this tab as Personal to edit and correct it or add notes. All changes will be seen only by you. Learn more »
launch autoscroll
font size
0
reset
guitar tuner
edit
Autoscroll
slow
fast
+/-
esc
set tempo
stop
Author
Little Things
This single released by Dave Berry (born Dave Grundy) & The Cruisers in 
1965 reaching #5 UK charts. Bass performance John Fleet. Tab by bass50611
Great sixties song more or less as original.

Intro: NO BASS, GUITAR AND DRUMS ONLY

Verse 1:
G|-----------------------------------------------------------------------|
D|-2--2--2--2----------------------------0-1-2----2--2--2--2-------------|
A|-------------4--4--4--4--------------2-------2--------------4--4--4--4-|
E|-------------------------2--2--2--2------------------------------------|

G|------------------------------------------------------------------------|
D|---------------0-1-2--2---7--7--7--7--7--7--7--7------------------------|
A|-------------2-----------------------------------7--7--7--7--7--7--7--7-|
E|-2--2--2--2-------------------------------------------------------------|

                           (Break)
G|----------------------------|
D|-7--7--7--7--7--7--7--7-----|
A|----------------------------|
E|--------------------------7-|

Verse :
G|-----------------------------------------------------------------------|
D|-2--2--2--2----------------------------0-1-2----2--2--2--2-------------|
A|-------------4--4--4--4--------------2-------2--------------4--4--4--4-|
E|-------------------------2--2--2--2------------------------------------|

G|------------------------------------------------------------------------|
D|---------------0-1-2--2---7--7--7--7--7--7--7--7------------------------|
A|-------------2-----------------------------------7--7--7--7--7--7--7--7-|
E|-2--2--2--2-------------------------------------------------------------|

                           (Break)
G|----------------------------|
D|-7--7--7--7--7--7--7--7-----|
A|----------------------------|
E|--------------------------7-|

Chorus: (Play Quavers
G|-----------------------------------------------------------------------|
D|-5-5-5-5-5-5-5-5---2-2-2-2-2-2-2-2---5-5-5-5-5-5-5-5---2-2-2-2-2-2-2-2-|
A|-----------------------------------------------------------------------|
E|-----------------------------------------------------------------------|

    (Play Quavers)
G|-----------------------------------------------------------------------|
D|-----------------------------------------------------------------------|
A|-3-3-3-3-3-3-3-3---5-5-5-5-5-5-5-5---3-3-3-3-3-3-3-3---5-5-5-5-5-5-5-5-|
E|-----------------------------------------------------------------------|

            (Break)
G|------------|
D|------------|
A|-2--2--2--2-|
E|------------|

Riff: (NO BASS)

Verse 3:
G|-----------------------------------------------------------------------|
D|-2--2--2--2----------------------------0-1-2----2--2--2--2-------------|
A|-------------4--4--4--4--------------2-------2--------------4--4--4--4-|
E|-------------------------2--2--2--2------------------------------------|

G|------------------------------------------------------------------------|
D|---------------0-1-2--2---7--7--7--7--7--7--7--7------------------------|
A|-------------2-----------------------------------7--7--7--7--7--7--7--7-|
E|-2--2--2--2-------------------------------------------------------------|

                           (Break)
G|----------------------------|
D|-7--7--7--7--7--7--7--7-----|
A|----------------------------|
E|--------------------------7-|

Chorus: (Play Quavers
G|-----------------------------------------------------------------------|
D|-5-5-5-5-5-5-5-5---2-2-2-2-2-2-2-2---5-5-5-5-5-5-5-5---2-2-2-2-2-2-2-2-|
A|-----------------------------------------------------------------------|
E|-----------------------------------------------------------------------|

    (Play Quavers)
G|-----------------------------------------------------------------------|
D|-----------------------------------------------------------------------|
A|-3-3-3-3-3-3-3-3---5-5-5-5-5-5-5-5---3-3-3-3-3-3-3-3---5-5-5-5-5-5-5-5-|
E|-----------------------------------------------------------------------|

            (Break)
G|------------|
D|------------|
A|-2--2--2--2-|
E|------------|

Outro Riff:                               (End)
G|----------------------------|---0----------|
D|-NO BASS FIRST PART OF RIFF-|-2------0-1-2-|
A|----------------------------|------2-------|
E|----------------------------|--------------|


            
            
Suggest correction
Creating personal tab
Creating personal tab
You can edit any tab online and save it as your Personal.

You can edit, replace or remove any tab part or add personal notes – all changes will be seen only by you.

Personal tabs can be accessed anytime from any device, even offline.
Learn more »
Give kudos to tab author, rate the tab!
1 2 3 4 5
comments
print report bad tab
guest
You may want to rate the tab now too:
select rating
Wanna post a correction for this tab? Suggest correction