Oops, an error
Loading. Please wait.

Take Five bass

version 2
version 2

Whole song

11,193 views 18 this week
1 commentread comment
1 2 3 4 5
x 6
add to favorites
×
Save as Personal and add changes to this tab that will be seen only by you. Learn more ›
×
You can save this tab as Personal to edit and correct it or add notes. All changes will be seen only by you. Learn more »
launch autoscroll
font size
0
reset
guitar tuner
backing track
0:00
0:00
edit
Autoscroll
slow
fast
+/-
esc
set tempo
stop
Author
Difficulty
Tabbed By:	  Zubi Onwuka
Tuning:		  Standard


E|-----6--------6--------6--------6---|
A|6-6----4-6-6----4-6-6----4-6-6----4-|
D|------------------------------------|
G|------------------------------------|

E|7---------6---------4---------2---------|
A|--9---------8---------6---------4-------|
D|----9---9-----8---8-----6---6-----4---4-|
G|------8---------6---------4---------3---|

E|7---------6---------4---------6---------|
A|--9---------8---------6---------8-------|
D|----9---9-----8---8-----6---6-----8---8-|
G|------8---------6---------4---------6---|

E|-----6--------6--------6--------6---|
A|6-6----4-6-6----4-6-6----4-6-6----4-|
D|------------------------------------|
G|------------------------------------|

            
            
Suggest correction
Creating personal tab
Creating personal tab
You can edit any tab online and save it as your Personal.

You can edit, replace or remove any tab part or add personal notes – all changes will be seen only by you.

Personal tabs can be accessed anytime from any device, even offline.
Learn more »
comments
print report bad tab
1 comment total.
+1 reply
samblehhh 77 May 21, 2013 07:28 PM

did you really just tab this upside down?

guest
You may want to rate the tab now too:
select rating
Wanna post a correction for this tab? Suggest correction