Oops, an error
Loading. Please wait.
1,508 views 1 this week
no commentswrite comment
1 2 3 4 5
3 more votes to show rating
add to favorites
×
Save as Personal and add changes to this tab that will be seen only by you. Learn more ›
×
You can save this tab as Personal to edit and correct it or add notes. All changes will be seen only by you. Learn more »
launch autoscroll
font size
0
reset
guitar tuner
edit
Autoscroll
slow
fast
+/-
esc
set tempo
stop
Author
Bend It!
Dave Dee, Dozy, Beaky, Mick and Tich
Written by Alan Blaikley; released as a single with "She's So Good" as the
B-side

Intro:
G|------- ------- ------- -------|------- ------- ------- -------|
D|-------------------------------|-------------------------------|
A|-------------------------------|-------------------------------|
E|-------------------------------|-------------------------------|

Verse: (begin in slow tempo, and speed it up gradually; do the same in all 
verses)
G|------- ------- ------- -------|------- ------- ------- -------|
D|-------------------------------|----------------------------4--|
A|5------------------------------|5-----------------------5------|
E|----------------5--------------|----------------5--------------|
  Bend    it,     bend    it,     just    a       little  bit, and


G|------- ------- ------- -------|------- ------- ------- -------|
D|5------------------------------|5-----------------------5------|
A|----------------5--------------|----------------5-----------4--|
E|-------------------------------|-------------------------------|
  take    it      ea  -   sy,     show    you're  li- kin' it, And


G|------- ------- ------- -------|------- ------- ------- -------|
D|-------------------------------|----------------------------4--|
A|5------------------------------|5-----------------------5------|
E|----------------5--------------|----------------5--------------|
  lo  -   ver,    you     know    that    we'll   gonna   hit the


G|------- ------- ------- -------|------- ------- ------- -------|
D|5-------5----------------------|5-------5---------------5------|
A|----------------5-------5------|----------------5--------------|
E|-------------------------------|-------------------------------|
  heights, 'cause I'm     sure    that    we're   made to fit To-


G|------- ------- ------- -------|------- ------- ------- -------|
D|7-------7----------------------|7-------7---------------7------|
A|----------------7-------7------|----------------7--------------|
E|-------------------------------|-------------------------------|
  ge  -   ther    just    like    pie  -  ces     of      a
(slow it down gradually again to the original tempo during these last two 
bars)
G|------- ------- ------- -------|------- ------- ------- -------|
D|-------------------------------|-------------------------------|
A|5------------------------------|-------------------------------|
E|-------------------------------|-------------------------------|
  Jig  -  saw     puz  -  zle,    what's  the     hus  -  tle?

Verse:
G|------- ------- ------- -------|------- ------- ------- -------|
D|-------------------------------|----------------------------4--|
A|5------------------------------|5-----------------------5------|
E|----------------5--------------|----------------5--------------|
  Bend    it,     bend    it,     just    a       little  more, with-


G|------- ------- ------- -------|------- ------- ------- -------|
D|5------------------------------|5-----------------------5------|
A|----------------5--------------|----------------5-----------4--|
E|-------------------------------|-------------------------------|
  out     you,    ba  -   by,     I'm     so      in- se- cure, But


G|------- ------- ------- -------|------- ------- ------- -------|
D|-------------------------------|----------------------------4--|
A|5------------------------------|5-----------------------5------|
E|----------------5--------------|----------------5--------------|
  you     can     make    me      feel    that    I   am  sure I've


G|------- ------- ------- -------|------- ------- ------- -------|
D|5-------5----------------------|5-------5---------------5------|
A|----------------5-------5------|----------------5--------------|
E|-------------------------------|-------------------------------|
  got     a       sick -  ness    on  -   ly      you can cure, So


G|------- ------- ------- -------|------- ------- ------- -------|
D|7-------7----------------------|7-------7---------------7------|
A|----------------7-------7------|----------------7--------------|
E|-------------------------------|-------------------------------|
  just    re   -  lax,    there's stacks  of      time, but honey,


G|------- ------- ------- -------|------- ------- ------- -------|
D|-------------------------------|-------------------------------|
A|5------------------------------|-------------------------------|
E|-------------------------------|-------------------------------|
  please  don't   tease   me,     try     to      please  me.

Break (solo): (also begin with slow tempo, then speed it up gradually)
G|------- ------- ------- -------|------- ------- ------- -------|
D|-------------------------------|-------------------------------|
A|5------------------------------|5------------------------------|
E|----------------5--------------|----------------5--------------|
 


G|------- ------- ------- -------|------- ------- ------- -------|
D|-------------------------------|-------------------------------|
A|5------------------------------|5------------------------------|
E|----------------5--------------|----------------5--------------|
 


G|------- ------- ------- -------|------- ------- ------- -------|
D|-------------------------------|5------------------------------|
A|5-----------------------5------|----------------5--------------|
E|----------------5--------------|-------------------------------|
 


G|------- ------- ------- -------|------- ------- ------- -------|
D|5------------------------------|5------------------------------|
A|----------------5--------------|----------------5-----------4--|
E|-------------------------------|-------------------------------|
 


G|------- ------- ------- -------|------- ------- ------- -------|
D|-------------------------------|-------------------------------|
A|5------------------------------|5------------------------------|
E|----------------5--------------|----------------5--------------|
 


G|------- ------- ------- -------|------- ------- ------- -------|
D|-------------------------------|5-------5----------------------|
A|5------------------------------|----------------5-------5------|
E|----------------5--------------|-------------------------------|
 


G|------- ------- ------- -------|------- ------- ------- -------|
D|5-------5----------------------|5-------5---------------5------|
A|----------------5-------5------|----------------5--------------|
E|-------------------------------|-------------------------------|
 


G|------- ------- ------- -------|------- ------- ------- -------|
D|-------------------------------|-------------------------------|
A|5------------------------------|5------------------------------|
E|----------------5--------------|----------------5--------------|
 


G|------- ------- ------- -------|------- ------- ------- -------|
D|-------------------------------|5------------------------------|
A|5------------------------------|----------------5--------------|
E|----------------5--------------|-------------------------------|
 


G|------- ------- ------- -------|------- ------- ------- -------|
D|5-------5---------------5------|7-------7----------------------|
A|----------------5--------------|----------------7-------7------|
E|-------------------------------|-------------------------------|


                                 (slow down again during the final two bars)
G|------- ------- ------- -------|------- ------- ------- -------|
D|7-------7---------------7------|-------------------------------|
A|----------------7--------------|5------------------------------|
E|-------------------------------|-------------------------------|
 


G|------- ------- ------- -------|
D|-------------------------------|
A|-------------------------------|
E|-------------------------------|


Verse:
G|------- ------- ------- -------|------- ------- ------- -------|
D|-------------------------------|----------------------------4--|
A|5------------------------------|5-----------------------5------|
E|----------------5--------------|----------------5--------------|
  Bend    it,     bend    it,     just    a       little  bit, and


G|------- ------- ------- -------|------- ------- ------- -------|
D|5------------------------------|5-----------------------5------|
A|----------------5--------------|----------------5-----------4--|
E|-------------------------------|-------------------------------|
  take    it      ea  -   sy,     show    you're  li- kin' it, And


G|------- ------- ------- -------|------- ------- ------- -------|
D|-------------------------------|----------------------------4--|
A|5------------------------------|5-----------------------5------|
E|----------------5--------------|----------------5--------------|
  lo  -   ver,    you     know    that    we'll   gonna   hit the


G|------- ------- ------- -------|------- ------- ------- -------|
D|5-------5----------------------|5-------5---------------5------|
A|----------------5-------5------|----------------5--------------|
E|-------------------------------|-------------------------------|
  heights, 'cause I'm     sure    that    we're   made to fit To-


G|------- ------- ------- -------|------- ------- ------- -------|
D|7-------7----------------------|7-------7---------------7------|
A|----------------7-------7------|----------------7--------------|
E|-------------------------------|-------------------------------|
  ge  -   ther    just    like    pie  -  ces     of      a


G|------- ------- ------- -------|------- ------- ------- ------- -------|
D|-------------------------------|---------------------------------------|
A|5------------------------------|---------------------------------------|
E|-------------------------------|---------------------------------------|
  Jig  -  saw     puz  -  zle,    what's  the     hus  -  tle?

Outro: (also begin with slow tempo, and speed it up gradually)
G|------- ------- ------- -------|------- ------- ------- -------|
D|-------------------------------|----------------------------4--|
A|5------------------------------|5-----------------------5------|
E|----------------5--------------|----------------5--------------|
  Bend    it,     bend    it,     just    a       little  bit, and


G|------- ------- ------- -------|------- ------- ------- -------|
D|5------------------------------|5-----------------------5------|
A|----------------5--------------|----------------5-----------4--|
E|-------------------------------|-------------------------------|
  take    it      ea  -   sy,     show    you're  li- kin' it, And


G|------- ------- ------- -------|------- ------- ------- -------|
D|-------------------------------|----------------------------4--|
A|5------------------------------|5-----------------------5------|
E|----------------5--------------|----------------5--------------|
  aaaaaaaaaaaaaaaaaaaaaaaah,      show    me  now.


G|------- ------- ------- -------|------- ------- ------- -------|
D|5------------------------------|5-----------------------5------|
A|----------------5--------------|----------------5-----------4--|
E|-------------------------------|-------------------------------|
                  Yeah,           that's right.


G|------- ------- ------- -------|------- ------- ------- -------|
D|-------------------------------|----------------------------4--|
A|5-------5----------------------|5-------5----------------------|
E|----------------5-------5------|----------------5-------5------|
          Aaaaaaaaaaaaaaaaaaaaaaah,       you're  looking     good.


G|------- ------- ------- -------|------- ------- ------- -------|
D|5-------5----------------------|5-------5---------------5------|
A|----------------5-------5------|----------------5-----------4--|
E|-------------------------------|-------------------------------|
 


G|------- ------- ------- -------|------- ------- ------- -------|
D|-------------------------------|-------------------------------|
A|5-------5----------------------|5-------5---------------5------|
E|----------------5-------5------|----------------5--------------|
              Come on     now!                                All
                         (hey,            hey,            hey,

G|------- ------- ------- -------|------- ------- ------- -------|
D|5-------5----------------------|5-------5---------------5------|
A|----------------5-------5------|----------------5--------------|
E|-------------------------------|-------------------------------|
  right!                                              Yeah, that's
          hey,            hey,            hey,            hey,

G|------- ------- ------- -------|------- ------- ------- -------|
D|7-------7----------------------|7-------7---------------7------|
A|----------------7-------7------|----------------7--------------|
E|-------------------------------|-------------------------------|
  good!
          hey,            hey,            hey,            hey)

G|------- ------- ------- -------|------- ------- ------- -------|
D|-------------------------------|-------------------------------|
A|5------------------------------|-------------------------------|
E|-------------------------------|-------------------------------|

Please e-mail me for any corrections, or write a comment.

            
            
Suggest correction
Creating personal tab
Creating personal tab
You can edit any tab online and save it as your Personal.

You can edit, replace or remove any tab part or add personal notes – all changes will be seen only by you.

Personal tabs can be accessed anytime from any device, even offline.
Learn more »
Give kudos to tab author, rate the tab!
1 2 3 4 5
comments
print report bad tab
guest
You may want to rate the tab now too:
select rating
Wanna post a correction for this tab? Suggest correction