Oops, an error
Loading. Please wait.

Drive In Drive Out tab

version 3
version 3

Whole song

Interactive

1,566 views 6 this week
no commentswrite comment
1 2 3 4 5
2 more votes to show rating
add to favorites
×
Save as Personal and add changes to this tab that will be seen only by you. Learn more ›
×
You can save this tab as Personal to edit and correct it or add notes. All changes will be seen only by you. Learn more »
launch autoscroll
font size
0
reset
how to read this tab
guitar tuner
edit
Autoscroll
slow
fast
+/-
esc
set tempo
stop
Author
Verse

E:----------------------|
B:----------------------|
G:----------------------|
D:----5--4--------------|  x3 then "End of Verse"
A:----------5--4--5--4--|
E:-5--------------------|
   2  3  1  2  1  2  1


End of Verse

E:--------------------|
B:--------------------|
G:--------------------|
D:----5--4-------5-5--|
A:----------5----x-x--|
E:-5-----------3-3-3--|
   2  3  1  2  1


On last verse before the chorus play this instead of "End of Verse"

E:--------------|
B:--------------|
G:--------------|
D:----5--4------|
A:--------------|
E:-5-------5\9--|
   2  3  1 (2)


The last two chords can be substitued with the Verse Riff at any time you like

E:--------------------------|
B:--------------------------|
G:--------------------------|
D:-5----\9-----5--5-- <---3-|on last 5's
A:-x-----x-----x--x---------|
E:-3----\7-----5--5-- <---2-|on5


"Don't care..."

E:--------------2------------------------------------------|
B:--------------3----1-1-3---------------------------------|
G:-2-3/7--6-----2----x-x-x-------------------------- <---2-|on2 of 1st chord
D:-2---------7--0----2-2-4--2--2--4--x--2--2--4--x---------|
A:-------------------3-3-5--x--x--x--x--x--x--x--x---------|
E:--------------------------x--x--x--x--x--x--x--x---------|
   1 (2)  1  2              1  1  4     1  1  4


Middle Jam

This section is played at variable timing, listen for it | This leads into the "Other Jam"

E:-------------------|
B:-------------------|
G:-------------------|
D:-------------------|
A:----------5-6-7-8--|
E:-5-6-7-8-----------|
  1 2 3 4  1 2 3 4


Other Jam

E:----------------------          E:----------------------|
B:----------------------          B:----------------------|
G:----------------------          G:----------------------|
D:----5--4--------------  x4 then D:----3--2--------------| x4
A:----------5--4--5--4--          A:----------3--2--3--2--|
E:-5--------------------          E:-3--------------------|
   2  3  1  2  1  2  1               2  3  1  2  1  2  1


Ending Jam

In the middle of this jam, they go to the "Other Jam", and then back here

E:-------------------------------------------------|
B:-------------------------------------------------|
G:-------------------------------------------------|
D:-------7--5--4--2--------------5-----5--------7--|
A:----7--------------5--3--2-----------------7-----|
E:-5--------------------------3-----3-----5--------|
   1  3  4  1  1  1  4  2  1  1  4  1  4  1  3  4

            
            
Suggest correction
Creating personal tab
Creating personal tab
You can edit any tab online and save it as your Personal.

You can edit, replace or remove any tab part or add personal notes – all changes will be seen only by you.

Personal tabs can be accessed anytime from any device, even offline.
Learn more »
Give kudos to tab author, rate the tab!
1 2 3 4 5
comments
print report bad tab
guest
You may want to rate the tab now too:
select rating
Wanna post a correction for this tab? Suggest correction