Oops, an error
Loading. Please wait.

Fool To Think tab

version 2
version 2

Whole song

Interactive

1,933 views 1 this week
1 commentread comment
1 2 3 4 5
2 more votes to show rating
add to favorites
×
Save as Personal and add changes to this tab that will be seen only by you. Learn more ›
×
You can save this tab as Personal to edit and correct it or add notes. All changes will be seen only by you. Learn more »
launch autoscroll
font size
0
reset
how to read this tab
guitar tuner
edit
Autoscroll
slow
fast
+/-
esc
set tempo
stop
-=-=-=-=-=-=-=-=-=-=-=-=-=-=-=-=-=-=-=
Dave Matthews Band
Fool To Think
David J. Matthews & Glen Ballard
Everyday(2001)
Tabbed by Leandro Koren
leandro_koren@yahoo.com.ar
-=-=-=-=-=-=-=-=-=-=-=-=-=-=-=-=-=-=-=

Intro & Verse:

     B/E    F/C   D(Octave)
E|-|---------------------------|-|
B|-|---------------------3-----|-|
G|-|-------------7-------0-----|-|
D|-|-----4----5-------4--------|-|
A|-|---2----3-------5----------|-|
e|-|-0-------------------------|-| X 4

Verse I:

Look at me dreaming of you
All I could hope is to have you
To have you walking with me
Laughing so in love, we two
Almost drunkenly
I did imbibe of this
Fantasy of you and me

Chorus:

      A/D     Dsus2   D   A/D    Dsus2 D      Gadd9   G 
      pm..........................................................                      
E|-|--------5-----0------------5-----0-----|--------5-----0-------|-|
B|-|------3-----3-----3------3-----3-----3-|------3-----3-----3---|-|
G|-|----2-----2-----2------2-----2-----2---|----0-----0-----0-----|-|
D|-|--0------------------0-----------------|----------------------|-|
A|-|---------------------------------------|----------------------|-|
e|-|---------------------------------------|--3-------------------|-|

Was I a fool to think?
The way you looked at me
I swear you did
But you looked away too quick
Was I a fool, was I a fool to think
That you would take me home
As if I was yours
Was I a fool to think at all?

Intro X 2
Verse II:

I've grown tired of love
You are the trouble with me
I watch you walk right by
I smile, you do not notice me
Treat me recklessly
All you do is toss me pennies out
But the silence in me is screaming
Won't you come and get me?

Chorus:

Was I a fool to think?
The way you looked at me
I swear you did
But you looked away too quick
Was I a fool, was I a fool to think
That you would take me home
As if I was yours
Was I a fool to think at all?

Was I a fool to think?
The way you looked at me
I swear you did
But you looked away too quick
Was I a fool, was I a fool to think
That you would take me home
As if I was yours
Was I a fool to think at all?

You make a mess of me here
I dance a thousand steps for you
If you say yes to me
I'll be whatever gets you through

You make a mess of me here (was I a fool?)
I dance a thousand steps for you (was I a fool?)
Was I a fool, was I a fool to think?
Am I a fool, am I a fool for you?

End With Saxo.
-=-=-=-=-=-=-=-=-=-=-=-=-=-=-=-=-=-=-=-=-=-=-=-=-=-=-=-=-=-=-=-=-=-=-=-=-=-=
-=-=-=-=-=-=-=-=-=-=-=-=-=-=-=-=-=-=-=-=-=-=-=-=-=-=-=-=-=-=-=-=-=-=-=-=-=-=
Any questions mail me:
leandro_koren@yahoo.com.ar
-=-=-=-=-=-=-=-=-=-=-=-=-=-=-=-=-=-=-=-=-=-=-=-=-=-=-=-=-=-=-=-=-=-=-=-=-=-=
-=-=-=-=-=-=-=-=-=-=-=-=-=-=-=-=-=-=-=-=-=-=-=-=-=-=-=-=-=-=-=-=-=-=-=-=-=-=

            
            
Suggest correction
Creating personal tab
Creating personal tab
You can edit any tab online and save it as your Personal.

You can edit, replace or remove any tab part or add personal notes – all changes will be seen only by you.

Personal tabs can be accessed anytime from any device, even offline.
Learn more »
Give kudos to tab author, rate the tab!
1 2 3 4 5
comments
print report bad tab
1 comment total.
0 reply
dmbfan092487 31 Nov 22, 2005 04:49 AM

there is an easier way to play the chorus

E:------------------------------------
B:------------------------------------
G:------------14----------------------
D:-----11-12------12--11--14--11--12-- x4
A:------------------------------------
E:-10---------------------------------
1 2 3 4 3 2 4 2 3

E:------------------------------------
B:------------------------------------
G:------------14----------------------
D:-----11-12------12--11--14--11--12-- x2 then first part x2
A:-10---------------------------------
E:------------------------------------
(tabbed by jkanter)


, and i've seen it on most guitar tab sites, plus there is a bridge/middle jam that you didn't post on here

E:---------------------------------------------------------
B:-----------------------------------------------/12---10--
G:---------11------------7-------------------9---/12---10--
D:-----9-------------------------9-------7-----------------
A:-7-----------------9-------7-------5---------------------
E:--------------10-----------------------------------------
1 2 4 3 2 1 1 4 1 2 4 1 1

E:------------------------------------------------
B:---------------------------------------4--5--7--
G:---------11------------7---------------4--5--7--
D:-----9-------------------------9----------------
A:-7-----------------9-------7-------5------------
E:--------------10--------------------------------
1 2 4 3 2 1 1 4 1 1 1 1
(also tabbed by j kanter)


otherwise, not to shabby, keep up the posting

guest
Wanna post a correction for this tab? Suggest correction