Oops, an error
Loading. Please wait.

Rooftop tab

version 1
version 1

Whole song

Interactive

7,576 views 9 this week
1 commentread comment
1 2 3 4 5
x 8
add to favorites
×
Save as Personal and add changes to this tab that will be seen only by you. Learn more ›
×
You can save this tab as Personal to edit and correct it or add notes. All changes will be seen only by you. Learn more »
launch autoscroll
font size
0
reset
how to read this tab
guitar tuner
edit
Autoscroll
slow
fast
+/-
esc
set tempo
stop
This is each bit to the song, you're smart enough to put it all together. Enjoy!

e|--------------------------------------------------------------------------------|
B|--------------------------------------------------------------------------------|
G|------9---9---------------------------7---7---------7-6------------Repeat 6x----|
D|----6---7---9---------9---9---------4---5---7-----------7-----------------------|
A|-/7-----------------6---7---9----/5-----------------------7-5-4-0---------------|
E|-----------------/7-------------------------------5-----------------------------|

e|-----------------0---------------------------------------------------------|
B|-----2-----------3---------------------------------------------------------|
G|-----2-----------2----------------Repeat 4x--------------------------------|
D|-----2-----------0--0-0-0-0-0----------------------------------------------|
A|-3bp0---3bp0-0-3----0-0-0-0-0----------------------------------------------|
E|--------------------3-0-3-0-3----------------------------------------------|

e|---------------------------------------------------------------------------|
B|---------------------------------------------------------------------------|
G|-2-----4-----6-----4-----2-------------------------------------------------|
D|-3-----5-----7-----5-----3------------Repeat 2x----------------------------|
A|-3-----5-----7-----5-----3-------------------------------------------------|
E|-1-----3-----5-----3-----1-------------------------------------------------|

e|-3-------0--------------------------3-------1------------------------------|
B|-0-------1--------------------------0-------1------------------------------|
G|-0---2---0---Repeat 4x--------------0---2---2----------Play this twice-----|
D|-0---2---2---On the 4th time play---0---2---3------------------------------|
A|-2---0---3--------------------------2---0---3------------------------------|
E|-3---0---0--------------------------3---0---1------------------------------|


************************************

| /   slide up
| p   pull-off
| b   bend

************************************

            
            
Suggest correction
Creating personal tab
Creating personal tab
You can edit any tab online and save it as your Personal.

You can edit, replace or remove any tab part or add personal notes – all changes will be seen only by you.

Personal tabs can be accessed anytime from any device, even offline.
Learn more »
comments
print report bad tab
1 comment total.
+1 reply
pmdavies92 10 Apr 18, 2014 03:20 AM

i found that in the first riff - after playing it and listening to the song - that the run going down at the end actually goes G:7-6>D:7>A:7-5-4-0-

guest
You may want to rate the tab now too:
select rating
Wanna post a correction for this tab? Suggest correction