Oops, an error
Loading. Please wait.

Sugar Will tab

version 3
version 3

Whole song

3,774 views 1 this week
no commentswrite comment
1 2 3 4 5
x 4
add to favorites
×
Save as Personal and add changes to this tab that will be seen only by you. Learn more ›
×
You can save this tab as Personal to edit and correct it or add notes. All changes will be seen only by you. Learn more »
launch autoscroll
font size
0
reset
how to read this tab
guitar tuner
edit
Autoscroll
slow
fast
+/-
esc
set tempo
stop
Difficulty
intermediate
DAVE MATTHEWS BAND
SUGAR WILL
EMAIL: AJGINDI4205-GMAIL
BY A.J. GINDI

Intro(/Interlude):

e-------------------|
b-------------------|
g-5-5-9-5-5-9-5-5-9-|REPEAT A LOT
d-7-9-7-7-9-7-7-9-7-|
a-------------------|
E-------------------|



Verse:  (FINGERS SHOULD GO   1-2 1-4 2-4  ON EACH CHORD)

e-------------------------------|-----------------|
b-------------------------------|-----------------|
g-------------------------------|-5-5-9-5-5-9-5-5-|
d--7--7--10-7--7---10--7--7-----|-7-9-7-7-9-7-7-9-|
a--8--10-8--8--10--8---8--10----|-----------------|
E-------------------------------|-----------------|
 

e---------------------------|-----------------------|
b---------------------------|-----------------------|
g-9--9--12--9--9--12--9-9---|--7-7--10-7-7--10-7-7--|
d-10-12-10--10-12-10-10-12--|--8-10-8--8-10-8--8-10-|
a---------------------------|-----------------------|
E---------------------------|-----------------------|

Repeat till the pre-chorus


PRE/POST CHORUS (BEFORE AND AFTER CHORUS):

e----------------|----------------|
b----------------|----------------|
g-2---5----------|-4---7----------|
d-3-5-3-/4---4---|-5-7-5-/6---6---|
a-------/5-7-5---|-------/7-9-7---|
E----------------|----------------|


Chorus:

e---------------|---------------|
b---------------|---------------|
g---------------|---------------|
d-3---7---3-7---|-2---5---2-5---|
a-5-7-5-7-5-5-7-|-3-5-3-5-3-3-5-|
E---------------|---------------|

e---------------|-------------------|
b---------------|-------------------|
g-4---7---4-7---|-------------------|
d-5-7-5-7-5-5-7-|-3---7---3-7---(3)-|
a---------------|-5-7-5-7-5-5-7-(5)-|
E---------------|-------------------|
                                 *

PRE/POST CHORUS (BEFORE AND AFTER CHORUS):

e----------------|----------------|
b----------------|----------------|
g-2---5----------|-4---7----------|
d-3-5-3-/4---4---|-5-7-5-/6---6---|
a-------/5-7-5---|-------/7-9-7---|
E----------------|----------------|


(Intro/Interlude)

e-----------------|
b-----------------|
g-5---9---5-9---5-|
d-7-9-7-9-7-7-9-7-|
a-----------------|
E-----------------|

I THINK THIS IS PRETTY CLOSE, FISRT TIME I TABBED ANYTHING. THANKS

            
            
Suggest correction
Creating personal tab
Creating personal tab
You can edit any tab online and save it as your Personal.

You can edit, replace or remove any tab part or add personal notes – all changes will be seen only by you.

Personal tabs can be accessed anytime from any device, even offline.
Learn more »
comments
print report bad tab
guest
Wanna post a correction for this tab? Suggest correction