Oops, an error
Loading. Please wait.

Why I Am tab

version 2
version 2

Whole song

Interactive

11,309 views 1 this week
3 commentsread comments
1 2 3 4 5
x 6
add to favorites
×
Save as Personal and add changes to this tab that will be seen only by you. Learn more ›
×
You can save this tab as Personal to edit and correct it or add notes. All changes will be seen only by you. Learn more »
launch autoscroll
font size
0
reset
how to read this tab
guitar tuner
edit
Autoscroll
slow
fast
+/-
esc
set tempo
stop
Author
This album is different but really grows on you.

I apologize for this tab being rather blah but just getting the main parts across.
I'm not sure how to coomunicate the rhythm well so just use your ears.
Never made a tab before and I don't have a definite way to play this, mainly just the musical
notes.

Main Riff:

G-GG-G(octave)-GG-C-B
 
e|---------------------------|
B|---------------------------|
G|---------------------------|
D|--------5------------------|
A|----------------------3--2-|
E|-3---3-----3-3--3--3-------|

Main Riff when sing "Why I am" at the end.

e|-----------------------------|
B|-----------------------------|
G|-----------------------------|
D|--------5-------------3--2---|
A|---------------------------3-|
E|-3---3-----3-3--3--3---------|

Might be this at times too.

e|------------------------------|
B|------------------------------|
G|------------------------------|
D|--------5-------------2--0----|
A|----------------------------2-|
E|-3---3-----3-3--3--3----------|

*I like to just pound on a G chord, hitting the top deeper strings and then the higher 
for the octave effect.  Then just get those other notes in there however, either 
or do a C chord and a C/B


Another part.  Listen for it.  First 3 notes are held longer and then quick on the A 
notes.

e|-------------------------|
B|-------------------------|
G|-------------------------|
D|----3--2--0--------------|
A|-------------3-2-3-5-0---|
E|-------------------------|

            
            
Suggest correction
Creating personal tab
Creating personal tab
You can edit any tab online and save it as your Personal.

You can edit, replace or remove any tab part or add personal notes – all changes will be seen only by you.

Personal tabs can be accessed anytime from any device, even offline.
Learn more »
comments
print report bad tab
3 comments total.
0 reply
casaBLANKa 10 Jun 15, 2009 07:41 PM

for the intro, it's like this:

A|-3-2-0------------------------
E|--------3-2-0------------------

the rhythm is shifty, but it's easy to play, just hard to tab.

0 reply
casaBLANKa 10 Jun 15, 2009 07:43 PM

another thing: i learned this song before it was released via a "making of" video released with iTunes Pass. :D

0 reply
twostepper 10 Jul 02, 2009 10:09 AM

rather blah

guest
You may want to rate the tab now too:
select rating
Wanna post a correction for this tab? Suggest correction