Oops, an error
Loading. Please wait.

Green Green Rocky Road tab

version 1
version 1

Whole song

Interactive

Video

72,294 views 42 this week
10 commentsread comments
1 2 3 4 5
x 21
add to favorites
×
Save as Personal and add changes to this tab that will be seen only by you. Learn more ›
×
You can save this tab as Personal to edit and correct it or add notes. All changes will be seen only by you. Learn more »
launch autoscroll
font size
0
reset
how to read this tab
guitar tuner
edit
Autoscroll
slow
fast
+/-
esc
set tempo
stop
About this tab version
Version of Green Green Rocky Road off of 'Two Sides of Dave Van Ronk'. Was this info helpful? Yes No
This version is off the compilation: Two Sides of Dave Van Ronk.  I didn't tab every nuance
of Dave's performance, but the majority of the tones are there.  The key is to keep the 
bass strong and consistent and try to play along with the song to get all of the melody notes.  Have fun!

Nate Reid

Update: 11/15/2015
- Some have commented that the Capo should be at 4, but I just checked with the recording from "Two Sides of
Dave Van Ronk" and verified it should be at 5.  I think Dave even plays it slightly out-of-tune on the
recording
- Made a few corrections to the original tab.

Update: 12/09/2016
- Added accurate lyrics to his version off of 'Two Sides of Dave Van Ronk'

Capo 5 - Drop D

[Intro/Verse]
E|----------------|------2---------|----------------|--0-------------|----------------|--0---2---------|
B|--------3-------|3-3-------------|------3---------|3-----3---------|------3---------|3---------------|
G|2-4-------4-----|----------------|2-4---------4-2-|----------------|2-4-------0-4-2-|----------------|
D|----0-------0---|----0-------0---|----0-------0---|----0-------0---|----0-------0---|----0-------0---|
A|----------------|----------------|----------------|----------------|----------------|----------------|
D|0-------0-------|0-------0-------|0-------0-------|5-------0-------|0-------0-------|0-------0-------|

E|----------------|--0-------------|--0-----2-------|---------3s5---5-|--------3-0---2-|----2-----0------|
B|--------3-------|3-----3---------|--3-----3-------|--3--------------|--------0-----3-|----3-----3------|
G|2---4-------4-2-|----------------|--2-----------2-|-----------------|----------------|-----------------|
D|----0-------0---|----0-------0---|----0-------0---|----0--------0---|----0-------0---|----0-------0----|
A|----------------|----------------|----------------|-----------------|----------------|-----------------|
D|0-------0-------|5-------0-------|0-------0-------|0--------0-------|0-------5-------|0-------0--------|

E|2---3s5-3-0---2-|----2-----0-----|2---------------0|--2---------0-----|----------0-----|2---------------|
B|3-------0-----3-|----3-----3-----|3---3----------3-|-----------3----3-|----------3-----|3---------------|
G|----------------|----------------|------2-----2-4--|--------2-4-------|----------------|----------------|
D|----0-------0---|----0-------0---|----0-------0----|----0---------0---|----0-------0---|----0-------0---|
A|----------------|----------------|-----------------|------------------|----------------|----------------|
D|0-------5-------|0-------0-------|0-------0--------|0-------0---------|0-------0-------|0-------0-------|

************************************
|  s - Slide
************************************

When I go by Baltimore
Need no carpet on my floor
Come along and follow me
We'll go down to Galilee

[Chorus]
Green, green rocky road 
Promenade in green
Tell me who ya'll love
Tell me who ya'll love

Little Miss Jane run to the wall
Don't you stumble, don't you fall
Don't you sing, no don't you shout
Well when I sing come runnin' out

Green, green rocky road
Promenade in green
Tell me who ya'll love
Tell me who ya'll love

See that crow up in the sky
He don't walk, no he just fly
He don't walk, no he don't run
Keep on flappin' to the sun

Green, green rocky road
Promenade in green
Tell me who ya'll love
Tell me who ya'll love

[Instrumental]

[Verse reprise]
When I go by Baltimore
Need no carpet on my floor
Come along and follow me
There's a man in Galilee

Green, green rocky road 
Promenade in green
Tell me who ya'll love
Tell me who ya'll love

            
            
Suggest correction
Creating personal tab
Creating personal tab
You can edit any tab online and save it as your Personal.

You can edit, replace or remove any tab part or add personal notes – all changes will be seen only by you.

Personal tabs can be accessed anytime from any device, even offline.
Learn more »
comments
print report bad tab
10 comments total. Showing first comments.
0 reply
rock.fordie 10 Dec 28, 2013 04:58 AM

Thanks buddy!

+1 reply
cdmsatisfied 23 Jan 07, 2014 01:56 PM

Agggghh, my fingers don't work.

0 reply
alangton1997 60 Jan 09, 2014 12:31 AM

Capo 4th Fret instead of 5th. It doesn't matter that much but it's the way Dave Van Ronk plays it.

guest
You may want to rate the tab now too:
select rating
Wanna post a correction for this tab? Suggest correction