Oops, an error
Loading. Please wait.

He Was A Friend Of Mine tab

2,265 views 42 this week
no commentswrite comment
1 2 3 4 5
x 3
add to favorites
×
Save as Personal and add changes to this tab that will be seen only by you. Learn more ›
×
You can save this tab as Personal to edit and correct it or add notes. All changes will be seen only by you. Learn more »
launch autoscroll
font size
0
reset
how to read this tab
guitar tuner
edit
Autoscroll
slow
fast
+/-
esc
set tempo
stop
Dave van Ronk - He was a friend of mine


Capo II  
Std. Tuning



intro/verse

A                                E
----------0--------------------.-------------------------------.
-----2-----------2-----0^2-0---.-0---------0-----0-----0^2-0---.
-----2---------2-2-------2-2---.-1-------------1-1-------1-----.
-----2------2--------2-------2-.-----2-------2-------2-------2-.
-0---------------0-------------.-------------------------------.
--------0----------------0-----.-0-------0-------0-------0-----.

A
-------------------------------.
-2---------0-----2-----2---0---.
-2---------2-------------------.
-----2-------2-------2-------2-.
-0---------------0-------------.
---------0---------------0-----.


chorus:

D                A               C#              f#    f#dim7
                                1   2   3   4   1   2   3   4
-2---------0-------------------.-------------------------------.
-3---------3-----2-----0^2-0---.-2-----2---1-----2---x-1---1-x-.
-----2-----------2-------2-----.-1-----1---4-----2---x-2---2-x-.
-0-----------0-------2-------2-.-----3-------3---4---x-1---1-x-.
---------0-------0-------------.-4-------4---------------------.
-------------------------0-----.-----------------2-------------.


A                E
-------------------------------.
-2---------0-----0-----0^2-0---.
-2---------2-----1-------1-1---.
-----2-------2-------2-------2-.
-0-----------------------------.
---------0-------0-------0-----.



E                  A
he was a friend of mine
E                    A
  he was a friend of mine
D             A
 never had no money
C#               f#   f#dim7   
  to pay for his fine
A  E                    A
  he was a friend of mine



E                                A
  he never done he never done no wrong
E                  A
  he never done no wrong
D               A
  he was just a poor boy
C#              f#   f#dim7
  long way from home
A  E                 A
  he was a friend of mine



E              A
he died on the road 
E               A
 he died on the road
D             A
 never had no money
C#             f#      f#dim7
for sufficient clothes
A  E                  A
   he was a friend of mine



E                A
 i stole i stole away
E                A
i stole away and cried
D             A
 never had no money
C#                f#    f#dim7
and can't be satisfied
A   E                 A
   he was a friend of mine



E                  A
he was a friend of mine
E                A
he was friend of mine
D               A
when i hear his name
C#                    f#     f#dim7
 just can't keep from crying
A   E              A
   he was a friend mine

            
            
Suggest correction
Creating personal tab
Creating personal tab
You can edit any tab online and save it as your Personal.

You can edit, replace or remove any tab part or add personal notes – all changes will be seen only by you.

Personal tabs can be accessed anytime from any device, even offline.
Learn more »
Give kudos to tab author, rate the tab!
1 2 3 4 5
comments
print report bad tab
guest
You may want to rate the tab now too:
select rating
Wanna post a correction for this tab? Suggest correction