Oops, an error
Loading. Please wait.

Lazarus bass

version 1
version 1

Whole song

Interactive

3,274 views 39 this week
no commentswrite comment
1 2 3 4 5
x 4
add to favorites
×
Save as Personal and add changes to this tab that will be seen only by you. Learn more ›
×
You can save this tab as Personal to edit and correct it or add notes. All changes will be seen only by you. Learn more »
launch autoscroll
font size
0
reset
guitar tuner
backing track
0:00
0:00
edit
Autoscroll
slow
fast
+/-
esc
set tempo
stop
Author
Difficulty
intermediate
-------------------------------------------------------------------------------
                             Lazarus - David Bowie
-------------------------------------------------------------------------------
Tabbed by: Hayden Wood
E-mail: woodhay127@gmail.com

Tuning: Standard

This is the very first version of this and so I haven't got all the licks and 
fills from the bass player, but I have the main riff and the chorus.

Main Riff
G -------------------------------5-h7-5------------|
D -----------------------------7----------7--------|
A ----------------------7-8-----------------7\-----|
E --5----5-5-5-5----8------------------------------|

Variation 1
G -------------------------------5-h7-5--9-7-5-----|
D -----------------------------7-------------------|
A ----------------------7-8------------------------|
E --5----3-h5-5-5--5-8-----------------------------|

Variation 2
G -------------------------------------------------|
D -----------------------------0-------------------|
A -------------------------0-3---3-----------------|
E --5----5-5-5-5--3--1-----------------1-3---------|

Chorus (tricky timing here)
G -------------------------------------------------|
D -------------------------------------------------|
A ---------7--10--8--------------------------------|
E --8----8-----------10-10-10-10-------------------|

I like to noodle around the main riff as the outro winds its way around, even 
though the bass isn't actually heard there.


RIP David Bowie, a master of his art, died of cancer on the 10th January 2015. 
This song was his farewell gift to the world. He will be missed.


************************************

| h  Hammer-on
| \  Slide down  

************************************

            
            
Suggest correction
Creating personal tab
Creating personal tab
You can edit any tab online and save it as your Personal.

You can edit, replace or remove any tab part or add personal notes – all changes will be seen only by you.

Personal tabs can be accessed anytime from any device, even offline.
Learn more »
comments
print report bad tab
guest
You may want to rate the tab now too:
select rating
Wanna post a correction for this tab? Suggest correction