Oops, an error
Loading. Please wait.

Lazarus chords

version 2
version 2

Whole song

Interactive

7,931 views 36 this week
8 commentsread comments
1 2 3 4 5
x 23
add to favorites
×
Save as Personal and add changes to this tab that will be seen only by you. Learn more ›
×
You can save this tab as Personal to edit and correct it or add notes. All changes will be seen only by you. Learn more »
launch autoscroll
font size
0
reset
transpose
0
reset
simplify chords
display chords
guitar tuner
backing track
0:00
0:00
edit
Autoscroll
slow
fast
+/-
esc
set tempo
stop
Author
Strumming
There is no strumming pattern for this song yet. and get +5 IQ
LAZARUS - DAVID BOWIE
"Blackstar" (2016)
Submitted by ClassicalfreaK


[INTRO]
e||--------------------------------|--------------------------------|
B||--------------------------------|--------------------------------|
G||--------------------------------|--------------------------------|
D||--------------------------------|--------------------------------|
A||5-5-5-5-5-5-5-5-5-5-5-5---------|--------------------------------|
E||------------------------3-3-3-3-|5-5-5-5-5-5-5-5-5-5-5-5-0-0-0-0-|

                                                            Em
e||--------------------------------|--------------------------------||
B||--------------------------------|--------------------------------||
G||--------------------------------|--------------------------------||
D||--------------------------------|--------------------------------||
A||3-3-3-3-3-3-3-3-3-3-3-3-2-2-2-2-|--------------------------------||
E||--------------------------------|3-3-3-3-3-3-3-3-3-3-3-3-0-0-0-0-||

 [sax]
Am FM7 Am FM7
Am FM7 Am FM7


[Verse]
Am                    FM7
 Look up here, I'm in heaven
Am                   FM7
 I've got scars that can't be seen
Am                        FM7
 I've got drama, can't be stolen
Am                  FM7
 Everybody knows me now

 [sax]
Am FM7 Am FM7
Am FM7 Am FM7

Am                         FM7
 Look up here, man, I'm in danger
Am                        FM7
 I've got nothing left to lose
Am                       FM7
 I'm so high it makes my brain whirl
Am                         FM7
 Drop my cell phone down below
Am FM7
    Ain't that just like me?
Am FM7


[Bridge]
C       Eb            D/F#
 By the time I got to New York
C      Eb            D/F#
 I was living like a king
C        Eb             D/F#
 There I used up all my money
C      Eb               D/F#
 I was looking for your ass


[Verse]
Am           F
 This way or no way
Am                F
 You know I'll be free
Am              F
 Just like that bluebird
Am                            F
 Now, ain't that just like me?

Am           F
 Oh, I'll be free
Am              F
 Just like that bluebird
Am           F
 Oh, I'll be free
Am                    F
 Ain't that just like me?

 [sax]
Am F Am F
Am F Am F
Am F Am F
Am F Am F
 [gtr]
Am F Am F
Am F Am F
 [fading out]
Am F Am F
Am F Am F
Am ...

            
            
Suggest correction
Creating personal tab
Creating personal tab
You can edit any tab online and save it as your Personal.

You can edit, replace or remove any tab part or add personal notes – all changes will be seen only by you.

Personal tabs can be accessed anytime from any device, even offline.
Learn more »
comments
print report bad tab
8 comments total. Showing first comments.
+1 reply
m_baudler 10 Jan 13, 2016 09:12 AM

Sounds pretty accurate

0 reply
ClassicalfreaK 3,138 Jan 14, 2016 05:26 AM

Thank you, I worked really hard on it!

+1 reply
jal_fallsy 33 Jan 13, 2016 06:40 PM

Thanks .. great job .. appreciate the effort on the new Bowie songs

guest
You may want to rate the tab now too:
select rating
Wanna post a correction for this tab? Suggest correction