Oops, an error
Loading. Please wait.
We have an official Life On Mars tab made by UG professional guitarists. Check out the tab »
×
862 views 12 this week
no commentswrite comment
1 2 3 4 5
2 more votes to show rating
add to favorites
×
Save as Personal and add changes to this tab that will be seen only by you. Learn more ›
×
You can save this tab as Personal to edit and correct it or add notes. All changes will be seen only by you. Learn more »
launch autoscroll
font size
0
reset
how to read this tab
guitar tuner
backing track
0:00
0:00
edit
Autoscroll
slow
fast
+/-
esc
set tempo
stop
Author
Difficulty
[Verse]
  Fmaj              A                 Adim/D♯           Dmaj
e|-5--------5------------|----------5------------|----------5------------|----------2------------|
B|-------6-------6-------|-------5-------5-------|-------4-------4-------|-------3-------3-------|
G|----5-------------5----|----5-------------5----|----5-------------5----|----2-------------2----|
D|---------------------7-|---------------------7-|---------------------0-|---------------------4-|
A|-8---------------------|-7---------------------|-6---------------------|-5---------------------|
E|-----------------------|-----------------------|-----------------------|-----------------------|
                   It's a God-awful small affair                   To the girl with the mousy hair


  Gm                Gm7               C7/E              C7
e|----------6------------|----------6------------|----------3------------|----------6------------|
B|-------8-------8-------|-------8-------8-------|-------5-------5-------|-------5-------5-------|
G|----7-------------7----|----7-------------7----|----3-------------3----|----3-------------3----|
D|-5-------------------5-|-----------------------|---------------------5-|---------------------5-|
A|-----------------------|-8-------------------8-|-----------------------|-3---------------------|
E|-----------------------|-----------------------|-0---------------------|-----------------------|
                   But her mummy is yelling no                    And her daddy has told her to go


  Fmaj              A                 Adim/D♯           Dmaj
e|-5--------5------------|----------5------------|----------5------------|----------2------------|
B|-------6-------6-------|-------5-------5-------|-------4-------4-------|-------3-------3-------|
G|----5-------------5----|----5-------------5----|----5-------------5----|----2-------------2----|
D|---------------------7-|---------------------7-|---------------------0-|---------------------4-|
A|-8---------------------|-7---------------------|-6---------------------|-5---------------------|
E|-----------------------|-----------------------|-----------------------|-----------------------|
                   But her friend is nowhere to be seen            Now she walks through her sunken dream   


  Gm                Gm7               C7/E              C7
e|----------6------------|----------6------------|----------3------------|----------6------------|
B|-------8-------8-------|-------8-------8-------|-------5-------5-------|-------5-------5-------|
G|----7-------------7----|----7-------------7----|----3-------------3----|----3-------------3----|
D|-5-------------------5-|-----------------------|---------------------5-|---------------------5-|
A|-----------------------|-8-------------------8-|-----------------------|-3---------------------|
E|-----------------------|-----------------------|-0---------------------|-----------------------|
                   To the seat with the clearest view             And she's hooked to the silver screen



[Pre-Chorus]

here are the chords:

    G♯maj    Eaug     Fm       F♯      C♯      Aaug      A♯m      B
e|---x--------0---|---1--------2---|---4--------5---|---6--------7---|
B|---4--------1---|---1--------2---|---6--------6---|---6--------7---|
G|---5--------1---|---1--------3---|---6--------6---|---6--------8---|
D|---6--------2---|---3--------4---|---6--------7---|---8--------9---|
A|---6--------x---|---3--------4---|---4--------x---|---8--------9---|
E|---x--------0---|---1--------2---|---x--------5---|---6--------7---|


Do 2 downstrums:

G♯maj           Eaug 
        But the film is a saddening bore

Fm                F♯ 
        For she's lived it ten times or more

C♯                Aaug
        She could spit in the eyes of fools

A♯m             B
        As they ask her to focus on



[Chorus]
here are the chords:

     A♯       D♯     Gm7      F♯aug    F       Fm      Cm7      D♯m7
e|---6--------6---|---3--------2---|---1--------1---|---3--------x---|
B|---6--------8---|---3--------3---|---1--------1---|---4--------x---|
G|---7--------8---|---3--------3---|---2--------1---|---3--------6---|
D|---8--------8---|---3--------4---|---3--------3---|---5--------4---|
A|---8--------6---|---5--------x---|---3--------3---|---3--------6---|
E|---6--------x---|---3--------2---|---1--------1---|---x--------x---|


A♯      D♯
Sailors fighting in te dance hall

Gm7     F♯aug                  F
Oh man! Look at those cavemen go

Fm                  Cm7
It's the freakiest show

D♯m7                A♯ 
Take a look at the lawman

D♯
Beating up the wrong guy

Gm7     F♯aug                      F
Oh man! Wonder if he'll ever know

Fm                       Cm7
He's in the best selling show

D♯m7
Is there life on-



[Chorus-Out]


   Gm      F♯aug   A♯/F    C9/E     F      B7/F♯    Gm    Bdim/D    Am      A♯      A♯m

e|-----3-------2-|-----1-------3-|-----1-------6-|-----3-------7-|-----5-------6-|------6-|
B|-----3-------4-|-----3-------3-|-----1-------5-|-----3-------6-|-----5-------6-|-----6--|
G|-----3-------4-|-----3-------3-|-----2-------2-|-----3-------7-|-----5-------7-|----6---|
D|-----5-------5-|-----3-------2-|-----3-------5-|-----5---0---0-|-----7-------8-|---8----|
A|-----5-------x-|-----1-------3-|-----3-------2-|-----5---------|-----7-------8-|--8-----|
E|-3---3---2---2-|-1---1---0---0-|-1---1---2---2-|-3---3---------|-5---5---6---6-|-6------|

  ma-aaaaaaaaaaaaahahars?



[Verse 2]
  Fmaj              A                 Adim/D♯           Dmaj
e|-5--------5------------|----------5------------|----------5------------|----------2------------|
B|-------6-------6-------|-------5-------5-------|-------4-------4-------|-------3-------3-------|
G|----5-------------5----|----5-------------5----|----5-------------5----|----2-------------2----|
D|---------------------7-|---------------------7-|---------------------0-|---------------------4-|
A|-8---------------------|-7---------------------|-6---------------------|-5---------------------|
E|-----------------------|-----------------------|-----------------------|-----------------------|
                  It's on America's tortured brow              That Mickey Mouse has grown up a cow


  Gm                Gm7               C7/E              C7
e|----------6------------|----------6------------|----------3------------|----------6------------|
B|-------8-------8-------|-------8-------8-------|-------5-------5-------|-------5-------5-------|
G|----7-------------7----|----7-------------7----|----3-------------3----|----3-------------3----|
D|-5-------------------5-|-----------------------|---------------------5-|---------------------5-|
A|-----------------------|-8-------------------8-|-----------------------|-3---------------------|
E|-----------------------|-----------------------|-0---------------------|-----------------------|
                   Now the workers have struck for fame           Because Lennon's on sale again


  Fmaj              A                 Adim/D♯           Dmaj
e|-5--------5------------|----------5------------|----------5------------|----------2------------|
B|-------6-------6-------|-------5-------5-------|-------4-------4-------|-------3-------3-------|
G|----5-------------5----|----5-------------5----|----5-------------5----|----2-------------2----|
D|---------------------7-|---------------------7-|---------------------0-|---------------------4-|
A|-8---------------------|-7---------------------|-6---------------------|-5---------------------|
E|-----------------------|-----------------------|-----------------------|-----------------------|
                  See the mice in their million hordes            From Ibiza to the Norfolk Broads  


  Gm                Gm7               C7/E              C7
e|----------6------------|----------6------------|----------3------------|----------6------------|
B|-------8-------8-------|-------8-------8-------|-------5-------5-------|-------5-------5-------|
G|----7-------------7----|----7-------------7----|----3-------------3----|----3-------------3----|
D|-5-------------------5-|-----------------------|---------------------5-|---------------------5-|
A|-----------------------|-8-------------------8-|-----------------------|-3---------------------|
E|-----------------------|-----------------------|-0---------------------|-----------------------|
                   Rule Britannia is out of bounds                 To my mother, my dog, and clowns



[Pre-Chorus 2]


Do 2 downstrums:

G♯maj           Eaug 
        But the film is a saddening bore

Fm                F♯ 
        Because I wrote it ten times or more

C♯                Aaug
        It's about to be writ again

A♯m             B
        As I ask you to focus on



[Chorus]


A♯      D♯
Sailors fighting in te dance hall

Gm7     F♯aug                  F
Oh man! Look at those cavemen go

Fm                  Cm7
It's the freakiest show

D♯m7                A♯ 
Take a look at the lawman

D♯
Beating up the wrong guy

Gm7     F♯aug                      F
Oh man! Wonder if he'll ever know

Fm                       Cm7
He's in the best selling show

D♯m7
Is there life on Mars?



[Chorus-Out]


   Gm      F♯aug   A♯/F    C9/E     F      B7/F♯    Gm    Bdim/D    Am      A♯      A♯m

e|-----3-------2-|-----1-------3-|-----1-------6-|-----3-------7-|-----5-------6-|------6-|
B|-----3-------4-|-----3-------3-|-----1-------5-|-----3-------6-|-----5-------6-|-----6--|
G|-----3-------4-|-----3-------3-|-----2-------2-|-----3-------7-|-----5-------7-|----6---|
D|-----5-------5-|-----3-------2-|-----3-------5-|-----5---0---0-|-----7-------8-|---8----|
A|-----5-------x-|-----1-------3-|-----3-------2-|-----5---------|-----7-------8-|--8-----|
E|-3---3---2---2-|-1---1---0---0-|-1---1---2---2-|-3---3---------|-5---5---6---6-|-6------|

  ma-aaaaaaaaaaaaahahars?




************************************

| x   Dead note
| g   Grace note
| (n) Ghost note
| h   Hammer-on
| p   Pull-off
| r   Release
| >   Accented note
| t   Tapping
| b   Bend
| br  Bend release
| pb  Pre-bend
| pbr Pre-bend release
| /   Slide up
| \   Slide down
| ~   Vibrato
| s   Slap
| P   Pop
| PM  Palm mute
| TR  Trill
| N   Tremolo

************************************

            
            
Suggest correction
Creating personal tab
Creating personal tab
You can edit any tab online and save it as your Personal.

You can edit, replace or remove any tab part or add personal notes – all changes will be seen only by you.

Personal tabs can be accessed anytime from any device, even offline.
Learn more »
Give kudos to tab author, rate the tab!
1 2 3 4 5
comments
print report bad tab
guest
You may want to rate the tab now too:
select rating
Wanna post a correction for this tab? Suggest correction