Oops, an error
Loading. Please wait.

Love You Till Tuesday bass

28 views 3 this week
no commentswrite comment
1 2 3 4 5
3 more votes to show rating
add to favorites
×
Save as Personal and add changes to this tab that will be seen only by you. Learn more ›
×
You can save this tab as Personal to edit and correct it or add notes. All changes will be seen only by you. Learn more »
launch autoscroll
font size
0
reset
guitar tuner
edit
Autoscroll
slow
fast
+/-
esc
set tempo
stop
David Bowie
Love you till tuesday
from David Bowie (1967)

Awesome and funny bass line!

Tabbed by Leo Chiurco

[Intro]
G|---------------------------------|---------------------------------|
D|---------------------------------|---------------------------------|
A|-10------8-----------8---9---10--|---------10------10--8-----------|
E|-----------------10--------------|-------------10----------10--8---|
   1 + + + 2 + + + 3 + + + 4 + + +   1 + + + 2 + + + 3 + + + 4 + + +

G|---------------------------------|---------------------------------|
D|---------10------10------10------|-10--8---7-----------------------|
A|-------------10--------------10--|-------------10--8---7-----------|
E|---------------------------------|-------------------------10--8---|
   1 + + + 2 + + + 3 + + + 4 + + +   1 + + + 2 + + + 3 + + + 4 + + +

G|---------------------------------|---------------------------------|
D|---------------------------------|---------------------------------|
A|-10------10--8-------8---9---10--|---------10------10--8-----------|
E|-----------------10--------------|-------------10----------10--8---|
   1 + + + 2 + + + 3 + + + 4 + + +   1 + + + 2 + + + 3 + + + 4 + + +

G|---------------------------------|---------------------------------|
D|---------10------10------10------|-10--8---7-----------------------|
A|-------------10--------------10--|-------------10--8---7-----------|
E|---------------------------------|-------------------------10--8---|
   1 + + + 2 + + + 3 + + + 4 + + +   1 + + + 2 + + + 3 + + + 4 + + +

[Verse 1] "Just look through your window ..."
G|---------------------------------|---------------------------------|
D|---------------------------------|---------------------------------|
A|-10----------10------------------|-10--------------10--8---7-------|
E|-----------------10----------10--|-------------10--------------10--|
   1 + + + 2 + + + 3 + + + 4 + + +   1 + + + 2 + + + 3 + + + 4 + + +

G|---------------------------------|---------------------------------|
D|---------------------------------|---------------------------------|
A|-10----------10----------10------|-8---6-------8---6-------8---6---|
E|-----------------10--------------|---------8-----------8-----------|
   1 + + + 2 + + + 3 + + + 4 + + +   1 + + + 2 + + + 3 + + + 4 + + +

G|---------------------------------|---------------------------------|
D|-----------------5-----------5---|-----------------5-----------5---|
A|-3-----------3-------------------|-3-----------3-------------------|
E|---------------------------------|---------------------------------|
   1 + + + 2 + + + 3 + + + 4 + + +   1 + + + 2 + + + 3 + + + 4 + + +

G|---------------------------------|---------------------------------|
D|-----------------5---------------|---------------------------------|
A|-3-----------3-----------3-------|-1-------1-------1---3---5---7---|
E|---------------------------------|-------------1-------------------|
   1 + + + 2 + + + 3 + + + 4 + + +   1 + + + 2 + + + 3 + + + 4 + + +

[Pre-chorus 1] "When you look out ..."
G|---------------------------------|---------------------------------|
D|---------------------------------|---------------------------------|
A|-8---------------8-----------9---|-10--------------10----------10--|
E|-------------8-------------------|-------------10------------------|
   1 + + + 2 + + + 3 + + + 4 + + +   1 + + + 2 + + + 3 + + + 4 + + +

G|---------------------------------|---------------------------------|
D|-10------10------8-------8-------|-7-------------------------------|
A|-------------10--------------8---|-------------------------7-------|
E|---------------------------------|---------5-------8---------------|
   1 + + + 2 + + + 3 + + + 4 + + +   1 + + + 2 + + + 3 + + + 4 + + +

G|---------------------------------|---------------------------------|
D|---------------------------------|---------------------------------|
A|-8-------------------------------|---------------------------------|
E|---------------------------------|-10------------------------------|
   1 + + + 2 + + + 3 + + + 4 + + +   1 + + + 2 + + + 3 + + + 4 + + +

[Chorus 1] "My burning desire ..."
G|---------------------------------|---------------------------------|
D|---------------------------------|---------------------------------|
A|-10--8-------10--8-------10------|---------------------7---8---9---| (x2)
E|---------10----------10------10--|-8-----------8---10--------------|
   1 + + + 2 + + + 3 + + + 4 + + +   1 + + + 2 + + + 3 + + + 4 + + +

G|---------------------------------|
D|---------------------------------|
A|-10------------------------------|
E|---------8-----------------------|
   1 + + + 2 + + + 3 + + + 4 + + +   

[Post-Chorus 1] "Da da da da...."
G|---------------------------------|---------------------------------|
D|---------------------------------|---------------------------------|\
A|-10------10--8-------8---9---10--|---------10------10--8-----------| \
E|-----------------10--------------|-------------10----------10--8---|  \
   1 + + + 2 + + + 3 + + + 4 + + +   1 + + + 2 + + + 3 + + + 4 + + +     \
                                                                             (x2)
G|---------------------------------|---------------------------------|   /
D|---------10------10------10------|-10--8---7-----------------------|  /
A|-------------10--------------10--|-------------10--8---7-----------| /
E|---------------------------------|-------------------------10--8---|/
   1 + + + 2 + + + 3 + + + 4 + + +   1 + + + 2 + + + 3 + + + 4 + + +  

[Verse 2] "Who's that hiding in the apple tree ..."
G|---------------------------------|---------------------------------|
D|---------------------------------|---------------------------------|
A|-10----------10------------------|-10--------------10--8---7-------|
E|-----------------10----------10--|-------------10--------------10--|
   1 + + + 2 + + + 3 + + + 4 + + +   1 + + + 2 + + + 3 + + + 4 + + +

G|---------------------------------|---------------------------------|
D|---------------------------------|---------------------------------|
A|-10----------10----------10------|-8---6-------8---6-------8---6---|
E|-----------------10--------------|---------8-----------8-----------|
   1 + + + 2 + + + 3 + + + 4 + + +   1 + + + 2 + + + 3 + + + 4 + + +

G|---------------------------------|---------------------------------|
D|-----------------5-----------5---|-----------------5-----------5---|
A|-3-----------3-------------------|-3-----------3-------------------|
E|---------------------------------|---------------------------------|
   1 + + + 2 + + + 3 + + + 4 + + +   1 + + + 2 + + + 3 + + + 4 + + +

G|---------------------------------|---------------------------------|
D|-----------------5---------------|---------------------------------|
A|-3-----------3-----------3-------|-1-------1-------1---3---5---7---|
E|---------------------------------|-------------1-------------------|
   1 + + + 2 + + + 3 + + + 4 + + +   1 + + + 2 + + + 3 + + + 4 + + +

[Pre-chorus 2] "If you lie beneath my shade ..."
G|---------------------------------|---------------------------------|
D|---------------------------------|---------------------------------|
A|-8---------------8-----------9---|-10--------------10----------10--|
E|-------------8-------------------|-------------10------------------|
   1 + + + 2 + + + 3 + + + 4 + + +   1 + + + 2 + + + 3 + + + 4 + + +

G|---------------------------------|---------------------------------|
D|-10------10------8-------8-------|-7-------------------------------|
A|-------------10--------------8---|-------------------------7-------|
E|---------------------------------|---------5-------8---------------|
   1 + + + 2 + + + 3 + + + 4 + + +   1 + + + 2 + + + 3 + + + 4 + + +

G|---------------------------------|---------------------------------|
D|---------------------------------|---------------------------------|
A|-8-------------------------------|---------------------------------|
E|---------------------------------|-10------------------------------|
   1 + + + 2 + + + 3 + + + 4 + + +   1 + + + 2 + + + 3 + + + 4 + + +

[Chorus 2] "I was very lonely ..."
G|---------------------------------|---------------------------------|
D|---------------------------------|---------------------------------|
A|-10--8-------10--8-------10------|---------------------7---8---9---| (x2)
E|---------10----------10------10--|-8-----------8---10--------------|
   1 + + + 2 + + + 3 + + + 4 + + +   1 + + + 2 + + + 3 + + + 4 + + +

G|---------------------------------|
D|---------------------------------|
A|-10------------------------------|
E|---------8-----------------------|
   1 + + + 2 + + + 3 + + + 4 + + +   

[Post-Chorus 2] "Da da da da...."
G|---------------------------------|---------------------------------|
D|---------------------------------|---------------------------------|
A|-10------10--8-------8---9---10--|---------10------10--8-----------| 
E|-----------------10--------------|-------------10----------10--8---|  
   1 + + + 2 + + + 3 + + + 4 + + +   1 + + + 2 + + + 3 + + + 4 + + +     
                                                                             
G|---------------------------------|---------------------------------|   
D|---------10------10------10------|-10--8---7-----------------------|  
A|-------------10--------------10--|-------------10--8---7-----------| 
E|---------------------------------|-------------------------10--8---|
   1 + + + 2 + + + 3 + + + 4 + + +   1 + + + 2 + + + 3 + + + 4 + + +  

G|---------------------------------|---------------------------------|
D|---------------------------------|---------------------------------|
A|-10------10--8-------8---9---10--|---------10------10--8-----------| 
E|-----------------10--------------|-------------10----------10--8---|  
   1 + + + 2 + + + 3 + + + 4 + + +   1 + + + 2 + + + 3 + + + 4 + + +   

[Interlude 1]
G|---------------------------------|---------------------------------|
D|---------------------------------|---------------------------------|
A|---------------------------------|---------------------------------|
E|---------------------------------|---------------------------------|
   1 + + + 2 + + + 3 + + + 4 + + +   1 + + + 2 + + + 3 + + + 4 + + +

G|---------------------------------|---------------------------------|
D|---------------------------------|---------------------------------|
A|---------------------------------|---------------------------------|
E|-8-------------------------------|---------------------------------|
   1 + + + 2 + + + 3 + + + 4 + + +   1 + + + 2 + + + 3 + + + 4 + + +

G|---------------------------------|---------------------------------|
D|---------------------------------|---------------------------------|
A|---------------------------------|---------------------------------|
E|-4-------------------------------|-6-------------------------------|
   1 + + + 2 + + + 3 + + + 4 + + +   1 + + + 2 + + + 3 + + + 4 + + +

G|---------------------------------|---------------------------------|
D|---------10------10------10------|-10--8---7-----------------------|
A|-------------10--------------10--|-------------10--8---7-----------|
E|-8-------------------------------|-------------------------10--8---|
   1 + + + 2 + + + 3 + + + 4 + + +   1 + + + 2 + + + 3 + + + 4 + + +

[Verse 3] "Let the wind blow through your hair ..."
G|---------------------------------|---------------------------------|
D|---------------------------------|---------------------------------|
A|-10----------10------------------|-10--------------10--8---7-------|
E|-----------------10----------10--|-------------10--------------10--|
   1 + + + 2 + + + 3 + + + 4 + + +   1 + + + 2 + + + 3 + + + 4 + + +

G|---------------------------------|---------------------------------|
D|---------------------------------|---------------------------------|
A|-10----------10----------10------|-8---6-------8---6-------8---6---|
E|-----------------10--------------|---------8-----------8-----------|
   1 + + + 2 + + + 3 + + + 4 + + +   1 + + + 2 + + + 3 + + + 4 + + +

G|---------------------------------|---------------------------------|
D|-----------------5-----------5---|-----------------5-----------5---|
A|-3-----------3-------------------|-3-----------3-------------------|
E|---------------------------------|---------------------------------|
   1 + + + 2 + + + 3 + + + 4 + + +   1 + + + 2 + + + 3 + + + 4 + + +

G|---------------------------------|---------------------------------|
D|-----------------5---------------|---------------------------------|
A|-3-----------3-----------3-------|-1-------1-------1-------1---3---|
E|---------------------------------|-------------1-------1-----------|
   1 + + + 2 + + + 3 + + + 4 + + +   1 + + + 2 + + + 3 + + + 4 + + +

[Pre-chorus 3] "If shall always watch you ..."
G|---------------------------------|---------------------------------|
D|---------------------------------|---------------------------------|
A|-8---------------8-----------9---|-10--------------10----------10--|
E|-------------8-------------------|-------------10------------------|
   1 + + + 2 + + + 3 + + + 4 + + +   1 + + + 2 + + + 3 + + + 4 + + +

G|---------------------------------|---------------------------------|
D|-10------10------8-------8-------|-7-------------------------------|
A|-------------10--------------8---|-------------------------7-------|
E|---------------------------------|---------5-------8---------------|
   1 + + + 2 + + + 3 + + + 4 + + +   1 + + + 2 + + + 3 + + + 4 + + +

G|---------------------------------|---------------------------------|
D|---------------------------------|---------------------------------|
A|-8-------------------------------|---------------------------------|
E|---------------------------------|-10------------------------------|
   1 + + + 2 + + + 3 + + + 4 + + +   1 + + + 2 + + + 3 + + + 4 + + +

[Chorus 3] "My heart's a flame ..."
G|---------------------------------|---------------------------------|
D|---------------------------------|---------------------------------|
A|-10--8-------10--8-------10------|---------------------7---8---9---| (x4)
E|---------10----------10------10--|-8-----------8---10--------------|
   1 + + + 2 + + + 3 + + + 4 + + +   1 + + + 2 + + + 3 + + + 4 + + +

G|---------------------------------|
D|---------------------------------|
A|-10------------------------------|
E|---------8-----------------------|
   1 + + + 2 + + + 3 + + + 4 + + +   

[Post-Chorus 3] "Da da da da...."
G|---------------------------------|---------------------------------|
D|---------------------------------|---------------------------------|
A|-10------8-----------8---9---10--|---------10------10--8-----------| 
E|-------------10--10--------------|-------------10----------10--8---|  
   1 + + + 2 + + + 3 + + + 4 + + +   1 + + + 2 + + + 3 + + + 4 + + +     
                                                                             
G|---------------------------------|---------------------------------|   
D|---------10------10------10------|-10--8---7-----------------------|  
A|-------------10--------------10--|-------------10--8---7-----------| 
E|---------------------------------|-------------------------10--8---|
   1 + + + 2 + + + 3 + + + 4 + + +   1 + + + 2 + + + 3 + + + 4 + + +  

G|---------------------------------|---------------------------------|
D|---------------------------------|---------------------------------|
A|-10------10--8-------8---9---10--|---------10------10--8-----------| 
E|-----------------10--------------|-------------10----------10--8---|  
   1 + + + 2 + + + 3 + + + 4 + + +   1 + + + 2 + + + 3 + + + 4 + + +   

G|---------------------------------|---------------------------------|   
D|---------10------10------10------|-10--8---7-----------------------|  
A|-------------10--------------10--|-------------10--8---7-----------| 
E|---------------------------------|-------------------------10--8---|
   1 + + + 2 + + + 3 + + + 4 + + +   1 + + + 2 + + + 3 + + + 4 + + + 

G|---------------------------------|---------------------------------|
D|---------------------------------|---------------------------------|
A|-10------8-----------8---9---10--|---------10------10--8-----------| 
E|-------------10--10--------------|-------------10----------10--8---|  
   1 + + + 2 + + + 3 + + + 4 + + +   1 + + + 2 + + + 3 + + + 4 + + + 

G|---------------------------------|---------------------------------|   
D|---------10------10------10------|-10--8---7-----------------------|  
A|-------------10--------------10--|-------------10--8---7-----------| 
E|---------------------------------|-------------------------10--8---|
   1 + + + 2 + + + 3 + + + 4 + + +   1 + + + 2 + + + 3 + + + 4 + + +  

G|---------------------------------|---------------------------------|
D|---------------------------------|---------------------------------|
A|-10------10--8-------8---9---10--|---------10------10--8-----------| 
E|-----------------10--------------|-------------10----------10--8---|  
   1 + + + 2 + + + 3 + + + 4 + + +   1 + + + 2 + + + 3 + + + 4 + + +  

[Interlude 2 & outro]
G|---------------------------------|---------------------------------|
D|---------------------------------|---------------------------------|
A|---------------------------------|---------------------------------|
E|---------------------------------|---------------------------------|
   1 + + + 2 + + + 3 + + + 4 + + +   1 + + + 2 + + + 3 + + + 4 + + +

G|---------------------------------|---------------------------------|
D|---------------------------------|---------------------------------|
A|---------------------------------|---------------------------------|
E|-8-------------------------------|---------------------------------|
   1 + + + 2 + + + 3 + + + 4 + + +   1 + + + 2 + + + 3 + + + 4 + + +

G|---------------------------------|---------------------------------|
D|---------------------------------|---------------------------------|
A|---------------------------------|---------------------------------|
E|-4-------------------------------|-6-------------------------------|
   1 + + + 2 + + + 3 + + + 4 + + +   1 + + + 2 + + + 3 + + + 4 + + +

G|---------------------------------|---------------------------------|
D|---------10------10------10------|---------------------------------|
A|-------------10--------------10--|---------------------------------|
E|-8-------------------------------|-8-------------------------------|
   1 + + + 2 + + + 3 + + + 4 + + +   1 + + + 2 + + + 3 + + + 4 + + +

"Well, I might stretch it till wednesday"
G|---------------------------------|
D|---------------------------------|
A|---------------------------------|
E|-------------------------8-------|
   1 + + + 2 + + + 3 + + + 4 + + +   

            
            
Suggest correction
Creating personal tab
Creating personal tab
You can edit any tab online and save it as your Personal.

You can edit, replace or remove any tab part or add personal notes – all changes will be seen only by you.

Personal tabs can be accessed anytime from any device, even offline.
Learn more »
Give kudos to tab author, rate the tab!
1 2 3 4 5
comments
print report bad tab
guest
You may want to rate the tab now too:
select rating
Wanna post a correction for this tab? Suggest correction