Oops, an error
Loading. Please wait.
We have an official Rebel Rebel tab made by UG professional guitarists. Check out the tab »
×
40,805 views 858 this week
4 commentsread comments
1 2 3 4 5
x 7
add to favorites
×
Save as Personal and add changes to this tab that will be seen only by you. Learn more ›
×
You can save this tab as Personal to edit and correct it or add notes. All changes will be seen only by you. Learn more »
launch autoscroll
font size
0
reset
how to read this tab
guitar tuner
backing track
0:00
0:00
edit
Autoscroll
slow
fast
+/-
esc
set tempo
stop
-----------------------------------------------------------------------------
                             Rebel Rebel - David Bowie
-----------------------------------------------------------------------------
Tabbed by:Binney Stone
Email:sharrison@middlesex.edu

Tuning:EBGDAE

This is almost the entire song. It is correct, but all comments are welcome.

Main Riff

      1 + 2 + 3 + 4 + 1 + 2 + 3 + 4 +        
e|--------0---0---0-------------------|
B|--------5---3---2-0---0---0-2-0-----|
G|------------------1---1---1-1-1-1---|
D|---(0)------------2---2---2-2-2---2-|
A|------------------------------------|
E|------------------------------------|


      1 + 2 + 3 + 4 + 1 + 2 + 3 + 4 + 1 + 2 + 3 + 4 + 1 + 2 + 3 + 4 +
      A               D               Bm              E
e|----------------------------------------------------0---------------|
B|----2---------------2---------------3---------------0---------------|
G|----2---------------3---------------4---------------1---------------|
D|----2---------------4---------------4---------------2---------------|
A|----0--------------(5)--------------2---------------2---------------|
E|----------------------------------------------------0---------------|




| /  slide up
| \  slide down
| h  hammer-on
| p  pull-off
| ~  vibrato
| +  harmonic
| x  Mute note
===============================================================================

            
            
Suggest correction
Creating personal tab
Creating personal tab
You can edit any tab online and save it as your Personal.

You can edit, replace or remove any tab part or add personal notes – all changes will be seen only by you.

Personal tabs can be accessed anytime from any device, even offline.
Learn more »
comments
print report bad tab
4 comments total. Showing first comments.
+1 reply
wunderdog 331 Sep 04, 2005 08:00 PM

The intro is off a bit. Here it is...

Q Q Q E E E E E E E E E E
|----0--(0)------|----------------------|
|--------3---2-0-|---0-----2p0-(0)-(0)--|
|------------2-1-|---1----------1-------|
|-0--------------|------------------2---|
|----------------|----------------------|
|----------------|-------0--------------|

0 reply
Kitarasande 166 Apr 06, 2008 05:19 AM

Good tab. =)

-2 reply
stevo192 90 Apr 20, 2008 08:26 AM

Presume you mean EADGBe tuning rather than eBGDAE?

guest
Wanna post a correction for this tab? Suggest correction