Oops, an error
Loading. Please wait.

Station To Station chords

version 1
version 1

Whole song

Interactive

19,452 views 81 this week
1 commentread comment
1 2 3 4 5
x 7
add to favorites
×
Save as Personal and add changes to this tab that will be seen only by you. Learn more ›
×
You can save this tab as Personal to edit and correct it or add notes. All changes will be seen only by you. Learn more »
launch autoscroll
font size
0
reset
transpose
0
reset
display chords
guitar tuner
backing track
0:00
0:00
edit
Autoscroll
slow
fast
+/-
esc
set tempo
stop
Strumming
There is no strumming pattern for this song yet. and get +5 IQ
David Bowie
"Station To Station"
from: Station To Station
transcribed by Romulus Rave

This is just the way I play it .... which is the right way

 [riff 1]
e|--------------------------------5-5-5-5-5--7-7-7-7-7---7-7--------|
B|--------7b8r7---5---7b8r7---5---6-6-6-6-6--8-8-8-8-8---8-8--------|
G|--------7b8r7---5---7b8r7---5---5-5-5-5-5--7-7-7-7-7---7-7--------|
D|--5/7-7-------------------------7-7-7-7-7--9-9-9-9-9---9-9--------|
A|--5/7-7-----------------------------------------------------------|:repeat
E|--3/5-5-----------------------------------------------------------|

[riff 2]
         Cm        G                F#                D
"The return of the Thin White Duke, throwing darts in lovers eyes"

return to riff 1 "Here am I .... Station to station" return to riff 2

[riff 3]
 G                                                          Bm
"Once there were mountains on mountains and once there were sunbirds to soar with
     D      A                 G
 and once I would never be down"
     D                               G
...."wonder who wonder who wonder when"

[riff 4]
 G               F#m     F           C D  E A E F#m :repeat
"Have you sought fortune evasive and shy
 Drink to the men who protect you and I
 Drink drink drain your glass
 Raise your glass high

[riff 5]
      A                                    Bm                           G
"It's not the side effects of the cocaine, I'm thinking that it must be love
          Bm            C
 It's too late to be grateful
          D               G
 It's too late to be late again
          Bm       C
 It's too late to hateful
      G                   A
 The European cannon is here"

[riff 6]
e|---------------------------------|
B|---------------------------------|
G|-----7p6-7p6---9---9-7p6-7p6-----|
D|---7---------7---------------7-7-|(7) hold over next bar
A|-0-------------------------------|
E|---------------------------------|

            
            
Suggest correction
Creating personal tab
Creating personal tab
You can edit any tab online and save it as your Personal.

You can edit, replace or remove any tab part or add personal notes – all changes will be seen only by you.

Personal tabs can be accessed anytime from any device, even offline.
Learn more »
comments
print report bad tab
1 comment total.
0 reply
barracuda6659 10 Sep 26, 2004 08:00 PM

The end of the riff can be played more easily by holding an A#/Bb (012330) and then sliding that chord up one step into a C (034550) and playing it as follows:

A#/Bb C C
e----------------------------
B----1----------3--------3---
G--2---2------4---4------4-4-
D--------3----------5------5-
A----------3----------5------
E----------------------------

guest
Wanna post a correction for this tab? Suggest correction