Oops, an error
Loading. Please wait.
We have an official Suffragette City tab made by UG professional guitarists. Check out the tab »
×
23,168 views 27 this week
4 commentsread comments
1 2 3 4 5
x 15
add to favorites
×
Save as Personal and add changes to this tab that will be seen only by you. Learn more ›
×
You can save this tab as Personal to edit and correct it or add notes. All changes will be seen only by you. Learn more »
launch autoscroll
font size
0
reset
how to read this tab
guitar tuner
backing track
0:00
0:00
edit
Autoscroll
slow
fast
+/-
esc
set tempo
stop
Suffragette City
David Bowie
Rise and Fall of Ziggy Stardust 1972


Well we need it for the band so here it is!!!


E---------------------5-----7---------------------5-----7----------------------------------------------------|
B------------------------------------------------------------------------------------------------------------|
G-4b-4b-4b-4b-4-2-3/5---5/7---4b-4b-4b-4b-4-2-3/5---5/7-------2-4-4b-4b-4-----2-2---2-2---2-4b-4---2-4b-4b-2-|
D---------------------------------------------------------2-4-------------3/4-----4-----4--------4-----------|
A------------------------------------------------------------------------------------------------------------|
E------------------------------------------------------------------------------------------------------------|

            
            
Suggest correction
Creating personal tab
Creating personal tab
You can edit any tab online and save it as your Personal.

You can edit, replace or remove any tab part or add personal notes – all changes will be seen only by you.

Personal tabs can be accessed anytime from any device, even offline.
Learn more »
comments
print report bad tab
4 comments total. Showing first comments.
0 reply
facebandit 114 Jan 22, 2007 04:54 PM

I heart this song

0 reply
DAS Guitar Er 10 Aug 25, 2008 04:13 PM

prety dang decent

0 reply
habits 96 Jun 10, 2010 05:08 AM

Right on the money....
but there's two little notes you're missing.

e-------------------------
B-------------------------
G-------2-4-4b-4b-4-2-4---
D---2-4-------------------
A-------------------------
E-------------------------

guest
You may want to rate the tab now too:
select rating
Wanna post a correction for this tab? Suggest correction