Oops, an error
Loading. Please wait.

Kiss On The Neck bass

287 views 1 this week
no commentswrite comment
1 2 3 4 5
3 more votes to show rating
add to favorites
×
Save as Personal and add changes to this tab that will be seen only by you. Learn more ›
×
You can save this tab as Personal to edit and correct it or add notes. All changes will be seen only by you. Learn more »
launch autoscroll
font size
0
reset
guitar tuner
edit
Autoscroll
slow
fast
+/-
esc
set tempo
stop
Author
Title: Kiss On The Neck
Artist: David Cook
Album: David Cook (Post-Idol album)

Tabbed by: Shania1234
*-I Think its pretty easy, i tabbed this the VERY FIRST day i got my bass, so it
shouldnt be too hard.*


Tuning: B E A D G (Standard 5 String)


Hld= Hold Note

INTRO:
G---------------------------------------------------|
D---------------------------------------------------|
A----------3-3-3-3---------3-3-3-3------------------|   x2 Listen to Rhythm
E----------------------------------2222222222222222-|
B--2-2-2-2---------2-2-2-2--------------------------|


VERSE:
G------------------------------------------------------------|
D------------------------------------------------------------|
A------------------------------------------------------------|     Easy To Figure
E-4--4-4-4-4--4-4-2--2-2-2-2--2-2-4--4-4-4-4--4-4-2--2-2-2-2-|     Out Just Listen
B------------------------------------------------------------|     To Rhythm

G---------------------------------------------------------------|
D---------------------------------------------------------------|
A---------------------------------------------------------------|
E-4444444444444444222222222222222244444444444444442-222-2-------|    Eighth Notes
B---------------------------------------------------------2Hld--|


CHORUS:
G---------------------------------------------------|
D---------------------------------------------------|
A----------3-3-3-3---------3-3-3-3------------------|   x2 Same As INTRO
E----------------------------------2222222222222222-|
B--2-2-2-2---------2-2-2-2--------------------------|

G-------------------------------------------------------------|
D-------------------------------------------------------------|
A-------------------------------------------------------------|
E-66666666666666665555555555555555444444444444444433333332Hld-|    Eighth Notes
B-------------------------------------------------------------|


BRIDGE:
G------------------------------------------------------------------|
D------------------------------------------------------------------|
A------------------------------------------------------------------|
E-6Hld 4 Beats-----5Hld 4 Beats-----4Hld 4 Beats-----3Hld 4 Beats--|
B------------------------------------------------------------------|

G------------------------------------------------------------------------------------|
D------------------------------------------------------------------------------------|
A------------------------------------------------------------------------------------|
E-6Hld 4 Beats-----5Hld 4 Beats-----4Hld 4 Beats-----3Hld 2 Beats----- 2Hld 2 Beats--|
B------------------------------------------------------------------------------------|

*4 Bars Of Rest*

CHORUS

OUTRO
G----------------------------------------------------------------------------|
D----------------------------------------------------------------------------|
A----------3-3-3-3---------3-3-3-3-----------3-3-3-3---------3-3-3-3---------|
E----------------------------------------------------------------------------|
B--2-2-2-2---------2-2-2-2-----------2-2-2-2---------2-2-2-2---------3-------|(Short)

**Be Sure To Count Beats In BRIDGE and the "4 Bars Of Rest" also be sure to make
that last note short**

            
            
Suggest correction
Creating personal tab
Creating personal tab
You can edit any tab online and save it as your Personal.

You can edit, replace or remove any tab part or add personal notes – all changes will be seen only by you.

Personal tabs can be accessed anytime from any device, even offline.
Learn more »
Give kudos to tab author, rate the tab!
1 2 3 4 5
comments
print report bad tab
guest
You may want to rate the tab now too:
select rating
Wanna post a correction for this tab? Suggest correction