Oops, an error
Loading. Please wait.

No One Like You chords

version 5
version 5

Interactive

10,790 views 3 this week
no commentswrite comment
1 2 3 4 5
1 last vote to show rating
add to favorites
×
Save as Personal and add changes to this tab that will be seen only by you. Learn more ›
×
You can save this tab as Personal to edit and correct it or add notes. All changes will be seen only by you. Learn more »
launch autoscroll
font size
0
reset
transpose
0
reset
simplify chords
display chords
guitar tuner
edit
Autoscroll
slow
fast
+/-
esc
set tempo
stop
Strumming
There is no strumming pattern for this song yet. and get +5 IQ
David Crowder
No One Like You
2006
Submitted by: paramore_ fans@yahoo.com

Key: G

Tuning: Standard EADGBe

Chords used:
G -  320033
D -  xx0232
Em - 022000
C -  x32010


Intro:
G
THERE IS NO ONE LIKE YOU
 G     D  Em     C
(THERE IS NO ONE LIKE YOU)
(Repeat)


Lead:

Riff 1:
e|----------------------------|
B|----------------------------|
G|-7-7-7-7-5-5-4-4------------|
D|-x-x-x-x-x-x-x-x------------| x4
A|-5-5-5-5-3-3-2-2------------|
E|----------------------------|


Bass: Slide at 3rd time of lead
G|------|
D|------|
A|-5/10-
E|------


VERSE 1:
G            Em
  YOU ARE MORE BEAUTIFUL
D            C
  THAN ANYONE, EVER
G         Em
  EVERYDAY YOU'RE THE SAME
D                 C
  YOU NEVER CHANGE, NO NEVER


Riff 2: G-D-Em-C x2
e|-7h8p7---|-10p8p78-|
B|-------8-|---------|
G|---------|---------|
D|---------|---------| x2
A|---------|---------|
E|---------|---------|
     x7


Verse 2: Palm mute
G            Em
  YOU ARE MORE BEAUTIFUL
D            C
  THAN ANYONE, EVER
G         Em
  EVERYDAY YOU'RE THE SAME
D                 C
  YOU NEVER CHANGE, NO NEVER
G                Em
  AND HOW COULD I EVER DENY
D               C
  THE LOVE OF MY SAVIOR
G
  YOU ARE TO ME
Em          D
  EVERYTHING ALL I
    C
NEED FOREVER


Guitar 2: in Verse 2: x means palm mute, x4
         G                  Em                D                 C
e|-----------------|-----------------|-----------------|-----------------|
B|-----------------|-----------------|-----------------|-----------------|
G|-----------------|-----9-----9---9-|-----7-----7---7-|-----5-----5---5-|
D|-----5-----5---5-|---9-----9---9---|---7-----7---7---|---5-----5---5---| x4
A|---5-----5---5---|-7-----7---------|-5-----5---------|-3-----3---------|
E|-3-----3---------|-----------------|-----------------|-----------------|
   x x   x x   x     x x   x x   x     x x   x x   x     x x   x x   x


REFRAIN:
D               C
  HOW COULD YOU BE SO GOOD?


Guitar 2: In Refrain
    D           C
e|----|---------------------|
B|----|---------------------|
G|-7--|-5-5-5-5/11-11-12-12-|
D|-7--|-5-5-5-5/11-11-12-12-|
A|-5--|-3-3-3-3/-9--9-10-10-|
E|----|---------------------|


CHORUS 1:
G     D  Em     C
THERE IS NO ONE LIKE YOU
G         D     Em
THERE HAS NEVER EVER
     C
BEEN ANYONE LIKE YOU


(Repeat Riff 2)


VERSE 2: Palm mute, Repeat the lead part of Verse 1
G           Em
  EVERYWHERE YOU ARE THERE
D             C
  EARTH OR AIR SURROUNDING
G              Em
  I'M NOT ALONE THE HEAVENS
          D
SING ALONG MY GOD YOU'RE
  C          G
SO ASTOUNDING HOW COULD YOU
  Em            D
BE SO GOOD TO ME ETERNALLY
C
I BELIEVE IT


(REPEAT CHORUS 1 TWICE)


CHORUS 2: Do Riff 2 for the lead part
G         D
  YOU, YOU, YOU,
   Em
YOU, YOU, YOU
C         G-D-Em-C
  YOU, YOU


Refrain 2: Silent
D               C
  HOW COULD YOU BE SO GOOD TO ME?
D                C
  (HOW COULD YOU BE SO GOOD TO ME?)
(Repeat)
D
  HOW COULD YOU...
(WE'RE NOT ALONE)
C
  SO SING ALONG
D
  WE'RE NOT ALONE
C
  SO SING ALONG
                     harmonics
SING ALONG SING ALONG


Lead Part: In Refrain 2, * means harmonics
      D           C
e|---------|----2h3----2h3-|
B|---------|-1-------3-----|
G|-------7-|---------------|
D|----7----|---------------| x6
A|-5-------|---------------|
E|---------|---------------|

All instruments will
stop in harmonics!!!
e|------------------|
B|-------5*---------|
G|----5*------------|
D|-5*---------------|
A|------------------|
E|------------------|


CHORUS 3:
G     D  Em     C
THERE IS NO ONE LIKE YOU
G         D     Em
THERE HAS NEVER EVER
     C
BEEN ANYONE LIKE YOU
G(hold)
THERE IS NO ONE LIKE YOU
                C(Bass slide)
THERE HAS NEVER EVER
BEEN ANYONE LIKE YOU


Lead: at G(hold)
e|-------------|
B|-------------|
G|-12-feedback-|
D|-------------|
A|-------------|
E|-------------|

Bass:
G|-------------------------|
D|-------------------------|
A|-3/15-15-15-15-----------|
E|-------------------------|


OUTRO: Repeat Riff 2 for lead part
G               D
THERE IS NO ONE LIKE YOU
          Em                C
THERE HAS NEVER BEEN ANYONE LIKE YOU
         G
THERE IS NO ONE LIKE YOU
D                    Em
THERE HAS NEVER BEEN ANYONE LIKE YOU
C     G/B  Am G/B
THERE IS   NO ONE
C    G/B G(hold)
LIKE OUR GOD,   YEAH

            
            
Suggest correction
Creating personal tab
Creating personal tab
You can edit any tab online and save it as your Personal.

You can edit, replace or remove any tab part or add personal notes – all changes will be seen only by you.

Personal tabs can be accessed anytime from any device, even offline.
Learn more »
Give kudos to tab author, rate the tab!
1 2 3 4 5
comments
print report bad tab
guest
You may want to rate the tab now too:
select rating
Wanna post a correction for this tab? Suggest correction