Oops, an error
Loading. Please wait.

Only You tab

version 3
version 3

Whole song

Interactive

23,977 views 18 this week
2 commentsread comments
1 2 3 4 5
x 14
add to favorites
×
Save as Personal and add changes to this tab that will be seen only by you. Learn more ›
×
You can save this tab as Personal to edit and correct it or add notes. All changes will be seen only by you. Learn more »
launch autoscroll
font size
0
reset
how to read this tab
guitar tuner
edit
Autoscroll
slow
fast
+/-
esc
set tempo
stop
Author
-------------------------------------------------------------------------------
                             ONLY YOU - David Crowder Band
-------------------------------------------------------------------------------
Tabbed by: fiveironbrad

WOW this took a while to tab out... A few things to say about this one: I
placed some notes in parentheses either because they are played very softly
or not at all.  Ok, I know I shouldn't put in notes that aren't really there,
but think of them as placeholders for keeping the tempo.  Also, DO NOT USE A
PICK FOR THIS SONG!!  It is meant to be fingerpicked.  If you see any errors
or have any questions just message me or leave a comment.  Thanks! :D

INTRO:
    C                                   G/B
e|---------------------------------------------------------0-----------------|
B|------------1--------1h3-----3------------------3-----------3p1p0----------|
G|---------0--------0----------------0---------0--------0------------2p0-----|
D|-----0h2-------2----------2-----2---------0--------0-----------------------|
A|--3------------------------------------2-----------------------------------|
E|---------------------------------------------------------------------------|

   Am7                                  F 
e|-----------------------------0---------------------------------------------|
B|------------0--------0h1-----------1----------------1-------------1--------|
G|---------0--------0----------------------------0h2--------2p0-----------0--|
D|-----0h2-------2---------(2)-------------0h2h3-----------------------3-----|
A|--0----------------------------(0)-----------------------------------------|
E|--------------------------------------1---------------(1)-----(1)----------|

    C                                   G/B
e|---------------------------------------------------------0-----------------|
B|------------1--------1h3-----3------------------3-----------3p1p0----------|
G|---------0--------0----------------0---------0--------0------------2p0-----|
D|-----0h2-------2----------2-----2---------0--------0-----------------------|
A|--3------------------------------------2-----------------------------------|
E|---------------------------------------------------------------------------|

   Am7                                  F 
e|-----------------------------0---------------------------------------------|
B|------------0--------0h1-----------1----------------0h1--1h3-----1---------|
G|---------0--------0----------------------------0h2---------------------0---|
D|-----0h2-------2---------(2)-------------0h2h3----------------3-----3------|
A|--0----------------------------(0)-----------------------------------------|
E|--------------------------------------1------------------------------------|

VERSES:
    C                                   G/B
e|---------------------------------------------------------------------------|
B|------------1----------------1------------------1----------------1---------|
G|---------0--------0-------0--------0---------0--------0-------0--------0---|
D|-----0h2-------------2h3------------------0--------------2h3---------------|
A|--3------------3----------------3------2-----------2----------------2------|
E|---------------------------------------------------------------------------|

   Am7                                  F                              (x2)
e|---------------------------------------------------------------------------|
B|-----------1----------------1-----------------------1-------------1--------|
G|--------0--------0-------0--------0------------0h2--------2p0-----------0--|
D|-----2--------------2h3------------------0h2h3-----------------------3-----|
A|--0-----------0----------------0-------------------------------------------|
E|--------------------------------------1---------------(1)-----(1)----------|

BRAKE 1:
    C                                   G/B
e|---------------------3-----------------------------------3--1--------------|
B|------------1-----------------1-----------------1-----------------1--------|
G|---------0--------0-------(0)-------0--------0--------0-----------------0--|
D|-----0h2-------2-------(2)-------2--------0--------0----------------(0)----|
A|--3------------------------------------2----------------------(2)----------|
E|---------------------------------------------------------------------------|

   Am7                                   F
e|---------------------1--0--------------------------------------------------|
B|------------1-----------------1---------------------0h1--1h3-----1---------|
G|---------0--------0-----------------0----------0h2---------------------0---|
D|-----0h2-------2----------------(2)------0h2h3----------------3-----3------|
A|--0-----------------------(0)----------------------------------------------|
E|---------------------------------------1-----------------------------------|

CHORUS:  (strum)
    C               G              Am7              F                  (x2)  
e|--3---------------3---------------3---------------3------------------------|
B|--1---------------1---------------1---------------1------------------------|
G|--0---------------0---------------0---------------0---------0h2--2p0-------|
D|--2---------------0---------------2---------------3------------------------|
A|--3---------------2---------------0---------------x------------------------|
E|--x---------------3---------------x---------------1------------------------|

BRAKE 2:  (same as first half of intro)
    C                                   G/B
e|---------------------------------------------------------0-----------------|
B|------------1--------1h3-----3------------------3-----------3p1p0----------|
G|---------0--------0----------------0---------0--------0------------2p0-----|
D|-----0h2-------2----------2-----2---------0--------0-----------------------|
A|--3------------------------------------2-----------------------------------|
E|---------------------------------------------------------------------------|

   Am7                                  F 
e|-----------------------------0---------------------------------------------|
B|------------0--------0h1-----------1----------------1-------------1--------|
G|---------0--------0----------------------------0h2--------2p0-----------0--|
D|-----0h2-------2----------2--------------0h2h3-----------------------3-----|
A|--0----------------------------(0)-----------------------------------------|
E|--------------------------------------1---------------(1)-----(1)----------|

  (verse)
  (chorus)
  (bridge: same chords as chorus)


| h  hammer-on
| p  pull-off
| x  Mute note
===============================================================================

            
            
Suggest correction
Creating personal tab
Creating personal tab
You can edit any tab online and save it as your Personal.

You can edit, replace or remove any tab part or add personal notes – all changes will be seen only by you.

Personal tabs can be accessed anytime from any device, even offline.
Learn more »
comments
print report bad tab
2 comments total.
0 reply
ericmcai 10 Aug 20, 2009 10:52 PM

thanks so much for tabbing this :) i have trouble playing this song but you actually managed to tab it so i tip my hat off to you for that :)

0 reply
fiveironbrad 107 Aug 22, 2009 09:05 PM

wow thanks eric!! this song definitely takes some practice... so don't give up!!

guest
You may want to rate the tab now too:
select rating
Wanna post a correction for this tab? Suggest correction