Oops, an error
Loading. Please wait.

5 Am tab

version 1
version 1

Whole song

24,677 views 147 this week
6 commentsread comments
1 2 3 4 5
x 26
add to favorites
×
Save as Personal and add changes to this tab that will be seen only by you. Learn more ›
×
You can save this tab as Personal to edit and correct it or add notes. All changes will be seen only by you. Learn more »
launch autoscroll
font size
0
reset
how to read this tab
guitar tuner
backing track
0:00
0:00
edit
Autoscroll
slow
fast
+/-
esc
set tempo
stop
Author
Difficulty
intermediate
David Gilmour - 5 A.M.
Neck pickup, some delay and overdrive. 
Thumb/finger pick - no pick/plectrum.


 Em
e|-------------------------------------------------------| 
B|-15b~~-15p12—15b17-(17)-(17)-(17b18)r15~~--------3-5~~-|
G|---------------------------------------------2s4-------|
D|-------------------------------------------------------|
A|-------------------------------------------------------|
E|-------------------------------------------------------|

e|---------------------------------------------------| 
B|-----3-3~-5---------------------------------3-5~~~-|
G|-2s4--------4p2-0-2s4-----2b3r0-2-------2s4--------|
D|----------------------5~----------2~---------------|
A|---------------------------------------------------|
E|---------------------------------------------------|

e|----15~~--14~~--------------------------------| 
B|---x-----x-----pb12r10b12---------------------|
G|--x-----x---------------------2b4r2r0-2r0-----|
D|-x-----x----------------------------------2~--|
A|----------------------------------------------|
E|----------------------------------------------|

e|-12-14-14b15-14-12-----------------12-14-14b15r14-12-------------| 
B|-------------------15--10b12~~--12-------------------15~~~~~~~---|
G|-----------------------------------------------------------------|
D|-----------------------------------------------------------------|
A|-----------------------------------------------------------------|
E|-----------------------------------------------------------------|
                                                                       
e|----12-14-14b15r14-15-17-17b19~~~-----------------------------------| 
B|-12----------------------------------10-8b10r8p7--------------------|
G|---------------------------------9-9-------------9-9—7s9~~-7-5~-2~~-|
D|--------------------------------------------------------------------|
A|--------------------------------------------------------------------|
E|--------------------------------------------------------------------|


e|-----------------------------------------10-10~------| 
B|-----3---3-5-----------3------8-10-10b12(hold-bend)--|
G|-2s4---4-----4p2p0-2s4----7s9------------------------|
D|-----------------------------------------------------|
A|-----------------------------------------------------|
E|-----------------------------------------------------|

e|-------------------------------------------------------------------| 
B|-12-15-15b17~~--15b17-15b18-15~--12h15-----------------------------|
G|---------------------------------------12h14-11h12-----------------|
D|---------------------------------------------------14h16-12h14-11~-|
A|-------------------------------------------------------------------|
E|-------------------------------------------------------------------|

e|---------------------------------------------------------------| 
B|---------8~------8-8---10-10---8-8---10-10---8-10-12-15b17r15~-|
G|-----7-9-----7s9-----9-------9-----9-------9-------------------|
D|-7s9-----------------------------------------------------------|
A|---------------------------------------------------------------|
E|---------------------------------------------------------------|

e|-14b15-(15)-r14--15-17-19-19b20-19-15-----19b20-19-15-------| 
B|--------------------------------------15--------------12~---|
G|------------------------------------------------------------|
D|------------------------------------------------------------|
A|------------------------------------------------------------|
E|------------------------------------------------------------|

e|----------------------10-10-----------------------7-7-7--7-7--| 
B|-8b10r8—10b12r8-10b12-(hold)-12r8-----------------8-8-8--8-8--|
G|----------------------------------9--7—4p2p0------7-7-7--7-7--|
D|---------------------------------------------2~~--------------|
A|--------------------------------------------------------------|
E|--------------------------------------------------------------|

e|-7-7-7--7--------------------------------------------------| 
B|-8-8-8--8-------8-10-10b-10-8------------------------------|
G|-7-7-7--7---7s9---------------7s9-7------------------------|
D|------------------------------------9-7s9-7-5--------------|
A|----------------------------------------------7p5---5------|
E|--------------------------------------------------7---7~---|



************************************

| x    Dead note
| (n)  Ghost note
| h    Hammer-on
| p    Pull-off
| r    Release
| b    Bend
| pb   Pre-bend
| ~    Vibrato
| s    Slide

************************************

            
            
Suggest correction
Creating personal tab
Creating personal tab
You can edit any tab online and save it as your Personal.

You can edit, replace or remove any tab part or add personal notes – all changes will be seen only by you.

Personal tabs can be accessed anytime from any device, even offline.
Learn more »
comments
print report bad tab
6 comments total. Showing first comments.
0 reply
MIKLO230 16 Sep 29, 2015 02:40 PM

Thank you for posting, great tab! Album reminds me of a cross between "About face" and "Division Bell".

0 reply
whirlpool 93 Jan 13, 2016 12:38 AM

This tab wrong in places eg (17b18) is (17b19) ie not (E b F) but (E b F#), the piece is in Em. And if the Em you have at the beginning is meant to mean the chord for the whole thing is Em - then its not. I will work out and post another tab.

0 reply
Jw325ic 188 Feb 05, 2016 01:39 PM, edited at 06:40 pm

Whirlpool, what key is this in then? G major? Ive watched him play these exact notes...i may have the scale letter wrong but the notes are right.

guest
You may want to rate the tab now too:
select rating
Wanna post a correction for this tab? Suggest correction