Oops, an error
Loading. Please wait.

No Way tab

6,845 views 15 this week
3 commentsread comments
1 2 3 4 5
x 5
add to favorites
×
Save as Personal and add changes to this tab that will be seen only by you. Learn more ›
×
You can save this tab as Personal to edit and correct it or add notes. All changes will be seen only by you. Learn more »
launch autoscroll
font size
0
reset
how to read this tab
guitar tuner
edit
Autoscroll
slow
fast
+/-
esc
set tempo
stop
Author
Difficulty
David Gilmour
"No Way"
David Gilmour
1978

This is a great song off of David Gilmour's forgotten debut album. 
This is my first tab so please give feedback. 
This is just the rhythm guitar. 
I am working on the solo now. 
ENJOY!!

Key:
h=Hammer


Intro:
e|-------------------------------------------------------------------------|
B|-------------------------------------------------------------------------|
G|--------------------------1----------------------------------------------|Repeat
D|--------------1h3-3---------------1h3------------------------------------|4x
A|-------------------------------------------------------------------------|
E|-------------------------------------------------------------------------|

e|-------------------------------------------------------------------------|
B|-------------------------------------------------------------------------|
G|--------------------------1----3-----------------------------------------|1x
D|--------------1h3-3-----3------------------------------------------------|
A|-------------------------------------------------------------------------|
E|-------------------------------------------------------------------------|

Verse 1:
e|-------------------------------------------------------------------------|
B|-------------------------------------------------------------------------|
G|--------------------------1----------------------------------------------|Repeat
D|--------------1h3-3---------------1h3------------------------------------|Until Solo
A|-------------------------------------------------------------------------|
E|-------------------------------------------------------------------------|

e|-------------------------------------------------------------------------|
B|-------------------------------------------------------------------------|
G|--------------------------1----3-----------------------------------------|At start
D|--------------1h3-3-----3------------------------------------------------|of solo
A|-------------------------------------------------------------------------|
E|-------------------------------------------------------------------------|

Solo 1:
e|-------------------------------------------------------------------------|
B|-------------------------------------------------------------------------|
G|--------------------------1----------------------------------------------|Repeat
D|--------------1h3-3---------------1h3------------------------------------|Through Solo
A|-------------------------------------------------------------------------|
E|-------------------------------------------------------------------------|

Bridge:
e|-------------------------------------------------------------------------|
B|-------------------------------------------------------------------------|
G|--------------------------1----------------------------------------------|Repeat
D|--------------1h3-3---------------1h3------------------------------------|4x
A|-------------------------------------------------------------------------|
E|-------------------------------------------------------------------------|

e|-------------------------------------------------------------------------|
B|-------------------------------------------------------------------------|
G|--------------------------1----3-----------------------------------------|1x
D|--------------1h3-3-----3------------------------------------------------|
A|-------------------------------------------------------------------------|
E|-------------------------------------------------------------------------|

Verse 2:
e|-------------------------------------------------------------------------|
B|-------------------------------------------------------------------------|
G|--------------------------1----------------------------------------------|Repeat
D|--------------1h3-3---------------1h3------------------------------------|Until Solo
A|-------------------------------------------------------------------------|
E|-------------------------------------------------------------------------|

e|-------------------------------------------------------------------------|
B|-------------------------------------------------------------------------|
G|--------------------------1----3-----------------------------------------|At start
D|--------------1h3-1-----3------------------------------------------------|of solo
A|-------------------------------------------------------------------------|
E|-------------------------------------------------------------------------|

Solo 2:
e|-------------------------------------------------------------------------|
B|-------------------------------------------------------------------------|
G|--------------------------1----------------------------------------------|Repeat
D|--------------1h3-3---------------1h3------------------------------------|Through Solo
A|-------------------------------------------------------------------------|
E|-------------------------------------------------------------------------|

Fade Out

Hope it sounds good to you. For best results use a Fender Strat with a tinge of distortion. 

            
            
Suggest correction
Creating personal tab
Creating personal tab
You can edit any tab online and save it as your Personal.

You can edit, replace or remove any tab part or add personal notes – all changes will be seen only by you.

Personal tabs can be accessed anytime from any device, even offline.
Learn more »
comments
print report bad tab
3 comments total.
+1 reply
rayp1111 31 Sep 22, 2010 02:55 AM

Sorry mate, tried to play your version along with the recording. Doesn't come close, sounds like yours is in the wrong key, the recording is a higher pitch and might even be played with a capo or different tuning.

0 reply
rayp1111 31 Sep 22, 2010 03:10 AM

Dm
e-|------------1---------
B-|--1>3--3----3----1>3--
G-|--2----2---------2---- throughout, except in middle eight
D-|-----0----0----0----0-
A-|----------------------
E-|----------------------

THIS IS HOW IT GOES!!!!!!!!!!!!

+1 reply
rayp1111 31 Sep 22, 2010 03:19 AM

I thought so!!! Even better, try it with a Capo on the 5th fret with a Am chord, which is really a Barred Dm chord. Easier to play and sounds just like the recording. Where you got your version from I dont know. You say it is your first effort, better make it your last!!

guest
You may want to rate the tab now too:
select rating
Wanna post a correction for this tab? Suggest correction