Oops, an error
Loading. Please wait.

Rattle That Lock solo tab

version 1
version 1

Solo

Whole song

9,279 views 18 this week
1 commentread comment
1 2 3 4 5
x 6
add to favorites
×
Save as Personal and add changes to this tab that will be seen only by you. Learn more ›
×
You can save this tab as Personal to edit and correct it or add notes. All changes will be seen only by you. Learn more »
launch autoscroll
font size
0
reset
how to read this tab
guitar tuner
backing track
0:00
0:00
edit
Autoscroll
slow
fast
+/-
esc
set tempo
stop
Author
Difficulty
intermediate
Tuning: Standard

[Solo 1]
(1:27)
  Cm 
e|-------------------------------------------------------------------------------|
B|-11\13~~~~~~~~~------------------------------11-11--13-13-16b18----------------|
G|---------------10b12--8b-----------------/12-------------------------8---------|
D|-------------------------10-10~~~~\------------------------------/10---10-10---|
A|-------------------------------------------------------------------------------|
E|-------------------------------------------------------------------------------|

                                   Ab                             Fm
e|--------------------------------------------------------------------11--13b15--|
B|----------------------------------------------13----11--13~~~~~-/13------------|
G|-/8-------------8b---X--10bp8-------------/12----12----------------------------|
D|----10-10-8--10------X-----------10---X----------------------------------------|
A|---------------------X----------------X----------------------------------------|
E|-------------------------------------------------------------------------------|
   
           Ab                        Fm                           Cm
e|-13\----------10b-8------------------------------------------------------------|
B|---------------------11---------------------11b13-8----11--11---11b13----------|
G|------------------------10b--8-----8\---------------10-------------------------|
D|-------------------------------------------------------------------------------|
A|-------------------------------------------------------------------------------|
E|-------------------------------------------------------------------------------|

[Solo 2] 
(3:35)
                          hold
               Cm         bend
e|-------8~~~~\----------|-----|-------------------------------------------------|
B|-11b13----------11b13-11----11rp8---11b13---11rb13~~~~~~--13--16---------------|
G|-------------------------------------------------------------------------------|
D|-------------------------------------------------------------------------------|
A|-------------------------------------------------------------------------------|
E|-------------------------------------------------------------------------------|

                                                                     Ab
e|---------------------13------------------------------------------8-------8-----|
B|-16b20--16p13--16b18----16b18-(16)\-----16b18--16\15--13\----------11b13-------|
G|-----------------------------------------------------------10b11---------------|
D|-------------------------------------------------------------------------------|
A|-------------------------------------------------------------------------------|
E|-------------------------------------------------------------------------------|

                                   Fm
e|-11p8--8--13p8--8--X-----11------13b15-13p11---13--13p11b----------------------|
B|---------------------/13----(0)----------------------------------------16------|
G|-------------------------------------------------------------------17----------|
D|-------------------------------------------------------------------------------|
A|-------------------------------------------------------------------------------|
E|-------------------------------------------------------------------------------|

   Ab                                         Fm
e|-------------------------------------------------------------------------------|
B|-18b20--16p13--16b18-13-------------------------------------------------4------|
G|-------------------------17\15-15--17\----10b11--8-----8-10\--------3-----3----|
D|---------------------------------------------------10----------3/5----5--------|
A|-------------------------------------------------------------------------------|
E|-------------------------------------------------------------------------------|

[Outro]
        Cm 
e|-------------------------------------------------------------13rb15--11--13b15-|
B|--3--------10rb11----11/13~~~~(13)-13--13--13--13--(13)\-----------------------|
G|----3/5----------8-------------------------------------------------------------|
D|-------------------------------------------------------------------------------|
A|-------------------------------------------------------------------------------|
E|-------------------------------------------------------------------------------|

e|-13b15-11---13--11-------------------------------------------------------------|
B|--------------------X--X-11-(11)b13--8--11---11b13-------13--16-15b16-16--13---|
G|--------------------X--X-------------------------------------------------------|
D|--------------------X--X-------------------------------------------------------|
A|-------------------------------------------------------------------------------|
E|-------------------------------------------------------------------------------|

e|-------------------------------------------------------------------------------|
B|-(13)-11--------------------------------------13-15--15b16-15-13-(13)-11-------|
G|----------12\10-8--10/8-/12-10-8-10--5-5--(5)----------------------------------|
D|-------------------------------------------------------------------------------|
A|-------------------------------------------------------------------------------|
E|-------------------------------------------------------------------------------|


************************************

| b    Bend
| \    Slide down
| ~    Vibrato
| /    Slide up
| p    Pull-off
| (n)  Ghost note

************************************

            
            
Suggest correction
Creating personal tab
Creating personal tab
You can edit any tab online and save it as your Personal.

You can edit, replace or remove any tab part or add personal notes – all changes will be seen only by you.

Personal tabs can be accessed anytime from any device, even offline.
Learn more »
comments
print report bad tab
1 comment total.
0 reply
whirlpool 92 Mar 05, 2016 01:22 AM, edited at 10:59 am

I've looked at the first solo. My only suggestions are:In line 2 the G---10bp8--- is G ---10b11r10p8---In line 3 the e---10b-8--- is e ---10b11r10-8---and the G---10b-8--- is G ---10b11r10-8---and the B---11b13-8- is B ---11B13r11-8---All these bends sound like bend and release to me. The only other thing is the mutes, there are two right at the beginning of line two. These are just small points otherwise nice tab - thanks. PS The bend on the 1 line is 16b20 - a Gilmour special.

guest
You may want to rate the tab now too:
select rating
Wanna post a correction for this tab? Suggest correction