Oops, an error
Loading. Please wait.

Please Forgive Me solo tab

version 1
version 1

Solo

Whole song

14,214 views 1 this week
1 commentread comment
1 2 3 4 5
x 6
add to favorites
×
Save as Personal and add changes to this tab that will be seen only by you. Learn more ›
×
You can save this tab as Personal to edit and correct it or add notes. All changes will be seen only by you. Learn more »
launch autoscroll
font size
0
reset
how to read this tab
guitar tuner
edit
Autoscroll
slow
fast
+/-
esc
set tempo
stop
 S= SLIDE

E--------8-8-------8-7----|
B-------------------------|
G---7s9------7s9----------|REAPEAT  TWICE
D-------------------------|
A-------------------------|
E-------------------------|

Then he does this

E---------8-8-----8-8-------8-8--------8-7--------8-8-----|
B---------------------------------------------------------|
G---7s9-----7s9-------7s9-------7s9--------7s9------------|
D---------------------------------------------------------|
A---------------------------------------------------------|
E---------------------------------------------------------|

That?s it!! It?s my 1st TAB so it may be a little confusing. Listen to the CD for the timing and stuff.

Peace and god be with our troops. 1/1/02

            
            
Suggest correction
Creating personal tab
Creating personal tab
You can edit any tab online and save it as your Personal.

You can edit, replace or remove any tab part or add personal notes – all changes will be seen only by you.

Personal tabs can be accessed anytime from any device, even offline.
Learn more »
comments
print report bad tab
1 comment total.
+1 reply
tordajav 2,836 Mar 22, 2008 05:51 PM

Finishing part:


e|------5--5-------3--3-------1--1-------1--1-------1--1-------1--1----|
B|---------------------------------------------------------------------|
G|---4h5--5-----2h4--4-----0h2--2-----0h2--2-----2h4--4-----2h4--4-----|
D|---------------------------------------------------------------------|
A|---------------------------------------------------------------------|
E|---------------------------------------------------------------------|

Hope this is useful!

guest
Wanna post a correction for this tab? Suggest correction