Oops, an error
Loading. Please wait.
We have an official Lovers On The Sun tab made by UG professional guitarists. Check out the tab »
×
2,304 views 9 this week
2 commentsread comments
1 2 3 4 5
2 more votes to show rating
add to favorites
×
Save as Personal and add changes to this tab that will be seen only by you. Learn more ›
×
You can save this tab as Personal to edit and correct it or add notes. All changes will be seen only by you. Learn more »
launch autoscroll
font size
0
reset
guitar tuner
edit
Autoscroll
slow
fast
+/-
esc
set tempo
stop
Author
-------------------------------------------------------------------------------
                            Lovers on the Sun
                       David Guetta ft. Sam Martin
-------------------------------------------------------------------------------
Tabbed by: Gr@ce07


 intro and first verse (don't play on chorus)
G|---------------0-2-0------|
D------2--2--2-4------4-2-0-|
A|---2--2--2----------------| 
E|-0------------------------|  x10


 2nd verse (After the instrumental part/Don't play on chorus)
G|---------------0-2-0h2p0-----|
D|-----2--2--2-4-----------2-0-|
A|---2--2--2-------------------|
E|-0---------------------------|x8

 3rd verse
G|--------------------------------------|
D|-2--------2-------2--------2-------2--|
A|--------2-------2--------2--------2---|
E|-----0--------0--------0--------0-----|  


            
            
Suggest correction
Creating personal tab
Creating personal tab
You can edit any tab online and save it as your Personal.

You can edit, replace or remove any tab part or add personal notes – all changes will be seen only by you.

Personal tabs can be accessed anytime from any device, even offline.
Learn more »
Give kudos to tab author, rate the tab!
1 2 3 4 5
comments
print report bad tab
2 comments total.
0 reply
Sidnney 10 May 20, 2015 11:20 AM

If you hear closely you can hear that the second time always sounds a little different. The two versions always alternate.

1st:
G|---------------0-2-0-------|
D|-----2--2--2-4-------4-2-0-|
A|---2--2--2-----------------|
E|-0-------------------------|

then:
G|---------------0-2-0h2p0-----|
D|-----2--2--2-4-----------2-0-|
A|---2--2--2-------------------|
E|-0---------------------------|

Except of that, it's a good tab.

0 reply
Gr@ce07 133 Aug 01, 2015 09:45 AM

thank you, I will correct it

guest
You may want to rate the tab now too:
select rating
Wanna post a correction for this tab? Suggest correction