Oops, an error
Loading. Please wait.

Just Once tab

13 views 1 this week
no commentswrite comment
1 2 3 4 5
3 more votes to show rating
add to favorites
×
Save as Personal and add changes to this tab that will be seen only by you. Learn more ›
×
You can save this tab as Personal to edit and correct it or add notes. All changes will be seen only by you. Learn more »
launch autoscroll
font size
0
reset
how to read this tab
guitar tuner
edit
Autoscroll
slow
fast
+/-
esc
set tempo
stop
[Intro]
A man can't look at a woman too long,
Looks like you without having thoughts
C                    D                      A
Run through his head, and straight past his heart.

Well I might not stand a ghost of a chance,
                            N/C
You're a one man woman not a one night stand.
C                  D                  A
You're not the kind to let it go that far.
      C
But I wouldn't think twice,
            D                 E
If you ever changed your mind.

     G          D
Just once, what I wouldn't do,
   A      
To get my arms 'round a woman like you.
     G         D                          A
Just once, I'd love to know what its like.
     G       D
Just once, before I die,
     A
What I wouldn't give for just one night.
     G      D     A     (Riff 1)
Just once......or twice.

Gazing in to your big brown eyes,
Tonight I'm a little bit hypnotized.
C               D                    A
What makes a man put himself through this?

I can't count the times I've held my breath
                         N/C
As you walked past to control myself.
C               D                 A
I think its time to get it off my chest.
        C                        D            E
So what I'd like to say, is if I had my way...

     G          D
Just once, what I wouldn't do,
   A      
To get my arms 'round a woman like you.
     G         D                          A
Just once, I'd love to know what its like.
     G       D
Just once, before I die,
     A
What I wouldn't give for just one night.
     G      D     A
Just once......or twice.

[SOLO]
       C                         D                      E
If you changed your mind, well I wouldn't think twice...
     G          D
Just once, what I wouldn't do,
   A      
To get my arms 'round a woman like you.
     G         D                          A
Just once, I'd love to know what its like.
     G       D
Just once, before I die,
     N/C
What I wouldn't give for just one night.
     G      D     A     (riff 2)
Just once......or twice.
     G      D     A     (riff 3)
Just once......or twice.

[INTRO]
                                        slow release   
e|-------------------------3---3-3-3-3-3-3--3--3--3-3-----------------|
B|-------------------------3bh-3-3-3-3-3-3r-3r-3r-3-1-----------------|
G|----------------2--2-0h2-----------------------------2-0------------|
D|-------2--------2---2-----------------------------------3p2p0-------|
A|--3p0--0--3p0-3b---------------------------------------------3b-0---|
E|-----3b-------------------------------------------------------------|

[RIFF 1]
e|---3---3-3-3-3--3-------------|
B|---3bh-3-3-3-3r-3-1b----------|
G|--2-----------------2p0-------|
D|------------------------------|
A|-----------------------3b-0---|
E|------------------------------|

[SOLO]
e|---------------------5----------------------|
B|--8---8-------------5-8-5-------------------|
G|--7bh-7r-p5-5-7p5-7b-----7b-7-5-------------|
D|-----------7-------------------7-0-5--------|
A|------------------------------------7\5-3---|
E|--------------------------------------------|

[RIFF 2]
e|--3----3----3------------------|
B|--4/5--4/5--4/5-5\3-1----------|
G|---------------------2p0-2-0---|
D|-------------------------------|
A|-------------------------------|
E|-------------------------------|

[RIFF 3]
e|----------------------------------------------------------|
B|--8--8-------------------------5--7-5---------------------|
G|--7b-7-5-----------------------5b-7-5b-----------2--------|
D|---------7-5----------------5-7--7----7-5--------2--------|
A|------------7\5-3b-----0-5/7-------------7-5-3b-0---------|
E|------------------5----------------------------------5\---|

There's also a riff in the chorus 1st & 4th lines which is:

e|--------------------|
B|--8-------8---------|
G|--7br-5---7br-5b----|
D|----------------7---|
A|--------------------|
E|--------------------|



************************************

| r   Release
| h   Hammer-on
| p   Pull-off
| b   Bend
| \   Slide down
| /   Slide up
| br  Bend release
| bh  

************************************

            
            
Suggest correction
Creating personal tab
Creating personal tab
You can edit any tab online and save it as your Personal.

You can edit, replace or remove any tab part or add personal notes – all changes will be seen only by you.

Personal tabs can be accessed anytime from any device, even offline.
Learn more »
Give kudos to tab author, rate the tab!
1 2 3 4 5
comments
print report bad tab
guest
Wanna post a correction for this tab? Suggest correction