Oops, an error
Loading. Please wait.

Dog-Headed Whore intro tab

1,801 views 12 this week
2 commentsread comments
1 2 3 4 5
2 more votes to show rating
add to favorites
×
Save as Personal and add changes to this tab that will be seen only by you. Learn more ›
×
You can save this tab as Personal to edit and correct it or add notes. All changes will be seen only by you. Learn more »
launch autoscroll
font size
0
reset
how to read this tab
guitar tuner
edit
Autoscroll
slow
fast
+/-
esc
set tempo
stop
Great song by former Acid Bath singer Dax Riggs

This is as far as I got by ear, I hope somebody will carry on.

There are some subtle bends here and there, you´ll know what I mean when you´re 
listening to this song ;)


     E  E  E  Q    E  S  S  E     E  E  E  Q    E  E   E   
E||----------------------------|--------------------------|
B||-----------3----------------|-----------3--------------|
G||-----4----------4--2p-0h-2--|-----4--------------------|
D||--------2-------------------|--------2-----------------|
A||----------------------------|-------------------5h--7--|
E||--0-------------------------|--0-----------------------|


  E  E  E  Q    E  S  S  E     E  E  E  Q    E  E  E   
----------------------------|-------------------------|
-----------3----------------|-----------3-------------|
-----4----------4--2p-0h-2--|-----4-------------------|
--------2-------------------|--------2----------------|
----------------------------|-------------------5--7--|
--0-------------------------|--0----------------------|


  E  E  E  Q.     E   E     E  E  E  Q    E  S  S  E   
-------------------------|----------------------------|
-----------3-------------|-----------3----------------|
-----4-------------------|-----4----------4--2p-0h-2--|
--------2----------------|--------2-------------------|
------------------5h--7--|----------------------------|
--0----------------------|--0-------------------------|


  E  E  E  Q    E  S  S  E     E  E  E  Q    E  E  E   
----------------------------|-------------------------|
-----------3----------------|-----------3-------------|
-----4----------4--2p-0h-2--|-----4----------4--2--0--|
--------2-------------------|--------2----------------|
----------------------------|-------------------------|
--0-------------------------|--0----------------------|


   E  E  E  Q    E  E  E     E          
--------------------------|-----|-----||
-----------------------0--|--L--|-----||
------------4-------------|-----|-----||
---------2----------2-----|-----|-----||
------0----------0--------|-----|-----||
--/5----------------------|-----|-----||




Duration Legend
---------------
W - whole
H - half
Q - quarter
E - 8th
S - 16th


Tablature Legend
----------------
L - tied note
h - hammer on
p - pull off

            
            
Suggest correction
Creating personal tab
Creating personal tab
You can edit any tab online and save it as your Personal.

You can edit, replace or remove any tab part or add personal notes – all changes will be seen only by you.

Personal tabs can be accessed anytime from any device, even offline.
Learn more »
Give kudos to tab author, rate the tab!
1 2 3 4 5
comments
print report bad tab
2 comments total.
0 reply
dougEgreenjeans 31 Apr 21, 2013 04:02 AM

anyone lookin for dax tabs and chords head over to a board with no name and click on ghost movements.

0 reply
dougEgreenjeans 31 Apr 21, 2013 04:03 AM

i play the album version intro like this
e----------------------------------|
B------3/4---------------3/4------|
G-2-2-----1-1-h3--2-2-----------|
D-3-3---------------3-3-------1-h3|
A-3-3---------------3-3------------|
E-1-1---------------1-1------------|

guest
Wanna post a correction for this tab? Suggest correction