Oops, an error
Loading. Please wait.

Not Coming In bass

version 1
version 1

Whole song

Interactive

2,343 views 1 this week
2 commentsread comments
1 2 3 4 5
x 7
add to favorites
×
Save as Personal and add changes to this tab that will be seen only by you. Learn more ›
×
You can save this tab as Personal to edit and correct it or add notes. All changes will be seen only by you. Learn more »
launch autoscroll
font size
0
reset
guitar tuner
edit
Autoscroll
slow
fast
+/-
esc
set tempo
stop
Pretty simple! Just listen out for the rhythm of the bass/kick (its pretty clear)

E: --------------------------------------------------------------------|
b: ----10----5-------------------------------10--5---------------------| X2
F#:---8------3--(follow the rhythm)---------8---3----------------------|
B: --8------3--0-00-00-0-000-0-0-00-0-000--8---3-----------------------|

Verse:

E: -------------------------------------------------------------------|
b: ----------------3--------------3--------------3-----10--5----------| X2
F#:-----5--3--5-3h5----5-3--5--3h5----5--3--5-3h5-----8---3-----------|
B: ---0--0--0--0------0-0-0--0---------0--0--0-------8---3------------|

Prechorus/Chorus:

E: -------------------------------------------------------------------|
b: -------------------------------------------------------------------| X2
F#:---5-55-55-5-555-5-5-55-5-555-x2-----------------------------------|
B: ------------------------------------888-333------------------------|

Pre-bridge:

E: -------------------------------------------------------------------|
b: -------------------------------------------------------------------|
F#:---5-55-55-5-555-5-5-55-5-555-x2-----------------------------------|
B: ------------------------------------888-333-888-333----------------|

Bridge:

E: -------------------------------------------------------------------|
b: -------------------------------------------------------------------| X3
F#:-------------------------------------------------------------------|
B: --000000000000000-222222222222-33333333333-5555555555555-----------|


E: -------------------------------------------------------------------|
b: -------------------------------------------------------------------|
F#:-------------------------------------------------------------------|
B: --000000000000000-222222222222-3333333333333333333333333-----------|

Post Bridge:

E: --------------------------------------------------|
b: ----------------3--------------3--------------3---|
F#:-----5--3--5-3h5----5-3--5--3h5----5--3--5-3h5----|
B: ---0--0--0--0------0-0-0--0---------0--0--0-------|

Those are pretty much all the separate parts of the song. The structure should be easy 
to figure out as well as the SLIGHT variations in the last chorus etc!

Enjoy!

            
            
Suggest correction
Creating personal tab
Creating personal tab
You can edit any tab online and save it as your Personal.

You can edit, replace or remove any tab part or add personal notes – all changes will be seen only by you.

Personal tabs can be accessed anytime from any device, even offline.
Learn more »
comments
print report bad tab
2 comments total.
0 reply
srevans92 10 Jan 14, 2014 07:05 PM

As far as I can tell, after playing this, this tab is on par. Although I think during the Bridge, instead of all four measures being
E: -------------------------------------------------------------------|
b: -------------------------------------------------------------------|
F#:-------------------------------------------------------------------|
B: --000000000000000-222222222222-33333333333-5555555555555-----------|

the second and fourth measure keep riding on 3, instead of going up to 5. I've been listening to the song very closely, and that's just what it sounds like to me anyways.

0 reply
slcarter998 12 Aug 12, 2016 04:55 PM

You're totally right! ;) Will edit.

guest
Wanna post a correction for this tab? Suggest correction