Oops, an error
Loading. Please wait.

Jesus Freak tab

version 5
version 5

Interactive

by dc Talk
21,432 views 15 this week
6 commentsread comments
1 2 3 4 5
x 20
add to favorites
×
Save as Personal and add changes to this tab that will be seen only by you. Learn more ›
×
You can save this tab as Personal to edit and correct it or add notes. All changes will be seen only by you. Learn more »
launch autoscroll
font size
0
reset
how to read this tab
guitar tuner
edit
Autoscroll
slow
fast
+/-
esc
set tempo
stop
Ok, here it is-hope you like it! This is my very first tab but I worked hard on it, I 
it's really accurate. However, if you find mistakes, feel free to comment me. Enjoy!
Jesus Freak Tab

Acoustic Intro:
E|-------------------------------------------------------------|
B|-------------------------------------------------------------|
G|----------------7-7---------------------------7-7—----—------|
D|--2-2-2--5-5-5--7-7--7-7---9-9--2-2-2--5-5-5--7-7—-7-7—-9-9--|
A|--2-2-2--5-5-5--5-5--7-7---9-9—-2-2-2—-5-5-5—-5-5—-7-7—-9-9--|
E|--0-0-0--3-3-3-------5-5---7-7—-0-0-0—-3-3-3-------5-5--7-7--|

Drums come in, then electric guitar:
E|-----------------------------------------------------------|
B|-----------------------------------------------------------|
G|----------------8-8--7-7--5-5----------------8-8—-7-7—-5-5-|
D|--3-3-3--6-6-6--8-8--7-7--5-5—-3-3-3—-6-6-6—-8-8—-7-7—-5-5-|
A|--3-3-3--6-6-6--6-6--5-5--3-3—-3-3-3—-6-6-6—-6-6—-5-5—-3-3-|
E|--1-1-1--4-4-4-----------------1-1-1—-4-4-4----------------|

E|-----------------------------------------------------------|
B|-----------------------------------------------------------|
G|----------------8-8--7-7--5-5----------------8-8—-7-7--5-5-|
D|--3-3-3—-6-6-6—-8-8—-7-7—-5-5—-3-3-3—-6-6-6—-8-8—-7-7—-5-5-|
A|--3-3-3—-6-6-6—-6-6—-5-5—-3-3—-3-3-3—-6-6-6—-6-6—-5-5—-3-3-|
E|--1-1-1—-4-4-4-----------------1-1-1—-4-4-4----------------|

Verse: just bass and drums

Rap: Listen to the song to get the rhythm down, it’s kinda hard.
E|-------------------------------------------------------|
B|-8b-8b---------------8b-8b—-8b-8b----------------8b-8b—|
G|-------------------------------------------------------|
D|--------3-3-3--6-6-6---------------3-3-3--6-6-6--------|
A|--------3-3-3--6-6-6---------------3-3-3--6-6-6--------|
E|--------1-1-1--4-4-4---------------1-1-1—-4-4-4--------|

E|-------------------------------------------------------|
B|-8b-8b---------------8b-8b—-8b-8b----------------8b-8b—|
G|-------------------------------------------------------|
D|--------3-3-3--6-6-6---------------3-3-3--6-6-6--------|
A|--------3-3-3--6-6-6---------------3-3-3--6-6-6--------|
E|--------1-1-1--4-4-4---------------1-1-1—-4-4-4--------|

Chorus:

E|--------------------------------------------------------------|
B|--------------------------------------------------------------|
G|---------------8-8----------------------------8-8—----—-------|
D|-3-3-3--6-6-6--8-8--8-8--10-10--3-3-3—-6-6-6—-8-8—-8-8—-10-10-|
A|-3-3-3--6-6-6--6-6--8-8--10-10—-3-3-3—-6-6-6—-6-6—-8-8—-10-10-|
E|-1-1-1--4-4-4-------6-6—--8--8—-1-1-1—-4-4-4-------6-6--8-8---|

E|-----------------------------------------------------------------|
B|-----------------------------------------------------------------|
G|---------------8-8----------------------------8-8—----—----------|
D|-3-3-3--6-6-6--8-8--8-8--10-10--3-3-3—-6-6-6—-8-8—-8-8—-10-10--3-|
A|-3-3-3--6-6-6--6-6--8-8--10-10—-3-3-3—-6-6-6—-6-6—-8-8—-10-10--3-|
E|-1-1-1--4-4-4-------6-6—--8--8—-1-1-1—-4-4-4-------6-6--8--8---1-|
Hold the last chord till the 2nd verse starts.

2nd Verse: Same as verse, no guitar part

2nd Rap: Mostly the same but slightly different at the beginning.
E|-------------------------------------------------------------|
B|--9p8-8h9-9-6--------------8b-8b—-8b-8b----------------8b-8b—|
G|-------------------------------------------------------------|
D|--------------3-3-3--6-6-6---------------3-3-3--6-6-6--------|
A|--------------3-3-3--6-6-6---------------3-3-3--6-6-6--------|
E|--------------1-1-1--4-4-4---------------1-1-1—-4-4-4--------|

E|-------------------------------------------------------|
B|-8b-8b---------------8b-8b—-8b-8b----------------8b-8b—|
G|-------------------------------------------------------|
D|--------3-3-3--6-6-6---------------3-3-3--6-6-6--------|
A|--------3-3-3--6-6-6---------------3-3-3--6-6-6--------|
E|--------1-1-1--4-4-4---------------1-1-1—-4-4-4--------|


Solo:
E|----------------------------------------14h15-----------------------------------------|
B|-------------------------13h14----------------14-14-14--------------------------13h14-|
G|-------------------------------13-13-13-----------------------------------------------|
D|-12-12-12----------------------------------------------12-12-12-----------------------|
A|----------10h11-11-11-11-----------------------------------------10h11-11-11-11-------|
E|—-------------------------------------------------------------------------------------|

E|----------14h15--------------------------------------------------14h15------16--------|
B|----------------14-14-14/5-----------------------13h14------------------14------------|
G|-13-13-13----------------------------------------------13-13-13-----------------------|
D|-------------------------12-12-12-----------------------------------------------------|
A|----------------------------------10h11-11-11-11--------------------------------------|
E|--------------------------------------------------------------------------------------|

The last few bars are all about technique. If you can’t get it down packed, it won’t 
nearly as good.


The song goes like this:
Acoustic Intro
Electric Intro
Verse 1
Rap 1
Chorus
Verse 2
Rap 2
Chorus
Bridge
Bridge
Chorus
Chorus
Ending

            
            
Suggest correction
Creating personal tab
Creating personal tab
You can edit any tab online and save it as your Personal.

You can edit, replace or remove any tab part or add personal notes – all changes will be seen only by you.

Personal tabs can be accessed anytime from any device, even offline.
Learn more »
comments
print report bad tab
6 comments total. Showing first comments.
0 reply
Crazymann 62 Apr 27, 2011 12:29 PM

I played it to the song and it sounded amazing! nice job!

+1 reply
TrevorPister25 10 Jul 14, 2012 10:47 AM

whats the tuning?

0 reply
Xavan 10 Jul 15, 2012 11:29 AM

Hey, TrevorPister25! It's Standard :)

guest
You may want to rate the tab now too:
select rating
Wanna post a correction for this tab? Suggest correction