Oops, an error
Loading. Please wait.

Partido En Dos bass

360 views 1 this week
no commentswrite comment
1 2 3 4 5
3 more votes to show rating
add to favorites
×
Save as Personal and add changes to this tab that will be seen only by you. Learn more ›
×
You can save this tab as Personal to edit and correct it or add notes. All changes will be seen only by you. Learn more »
launch autoscroll
font size
0
reset
guitar tuner
edit
Autoscroll
slow
fast
+/-
esc
set tempo
stop
Author
+++++++++++++++++++++++++++++
| De Saloon- Partido En Dos |
+++++++++++++++++++++++++++++


"Todo lo que hice lo hice por ti..."

Tuning: EADG


Intro    
1.
G|---------------------------------|
D|---------------------------------|
A|-----------2-44-24-55------------|--x2
E|-00-04-55-0-----------020--------|

Verse
"Cuanto tiempo he de esperar..."
2.
G|---------------------------------|
D|---------------------------------|
A|-----------2-44-24-55------------|--x4
E|-00-04-55-0-----------020--------|

Chorus
"Si queda algo en tu corazón..."
3.
G|---------------------------------|
D|-4-2-----4-2---4-2-------2-------|
A|-----4-0-----4------2-030-0------|--x3
E|---------------------------------|

"Todo esta partido en dos.."
4.
G|---------------------------------|
D|-4-2---7~------------------------|
A|-----4---------------------------|
E|---------------------------------|

Outro
5.
G|---------------------------------|
D|---------------------------------|
A|-----------2-44-24-55------------|--x2
E|-00-04-55-0-----------020--------|

Verse
"Cuanto tiempo he de esperar..."
6.
G|---------------------------------|
D|---------------------------------|
A|-----------2-44-24-55------------|--x4
E|-00-04-55-0-----------020--------|

Chorus
"Si queda algo en tu corazón..."
7.
G|---------------------------------|
D|-4-2-----4-2---4-2-------2-------|
A|-----4-0-----4------2-030-0------|--x3
E|---------------------------------|

"Todo esta partido en dos.."
8.
G|---------------------------------|
D|-4-2---7~------------------------|
A|-----4---------------------------|
E|---------------------------------|


Lyrics:


Cuanto tiempo he de esperar,
Para estar tranquilo, amor
Cuanta agua ha de cruzar
Por este rio, me río yo

Y es así como ves
Todo cambia de una vez
Y es así nada mas
Ahora estás tranquila, amor

Si queda algo en tu corazón
No lo quiero ni escuchar
Sabes que te quise y fué la razón
Que ahora me tengo que alejar
Todo lo que hice, lo hice por ti
Y ahora nada queda amor..
Todo está partido en dos..



+++++++++++++++++++++++++++++++++
| RaiLeff                       |
| Underground__Dora@hotmail.com |
+++++++++++++++++++++++++++++++++

            
            
Suggest correction
Creating personal tab
Creating personal tab
You can edit any tab online and save it as your Personal.

You can edit, replace or remove any tab part or add personal notes – all changes will be seen only by you.

Personal tabs can be accessed anytime from any device, even offline.
Learn more »
Give kudos to tab author, rate the tab!
1 2 3 4 5
comments
print report bad tab
guest
You may want to rate the tab now too:
select rating
Wanna post a correction for this tab? Suggest correction