Oops, an error
Loading. Please wait.

Creature tab

1,912 views 1 this week
no commentswrite comment
1 2 3 4 5
2 more votes to show rating
add to favorites
×
Save as Personal and add changes to this tab that will be seen only by you. Learn more ›
×
You can save this tab as Personal to edit and correct it or add notes. All changes will be seen only by you. Learn more »
launch autoscroll
font size
0
reset
how to read this tab
guitar tuner
edit
Autoscroll
slow
fast
+/-
esc
set tempo
stop
0:00-0:33 (S = 1 sixteenth-silence Listen to the song if you don't get it. You can't 
convey rhythm in all cases with this kind of tabbing. The first silence comes with the 
the second one is a bit earlier than the snare, the third one is with the snare again.)

x4
|---------------------------------------------------------------------------|
|---------------------------------------------------------------------------|
|-----------------------------------------------------------------7-7---777-|
|-----------------------------------------------------------------6-6---666-|
|-----------------------------------------------------------------5-5---555-|
|-4---1---1 S 1---1---1---1 S 1---1---1—--X-X-4---1---1 S 1---1-------0-----|
                                          . .                         .
Then this, on top of that 4th take.
|-------------|
|-------------|
|---7-7---777-|
|---6-6---666-|
|---5-5---555-|
|-------0-----|
        .

0:33-0:49 Here are those silences again.
|-------------------------------------------------------|
|-------------------------------------------------------|
|-------------------------------------------------------|
|-----4  S  1---X-X-4--1--4  S  1---X-X----X-X----X-X---|
|-----4  S  1---X-X-4--1--4  S  1---X-X----X-X----X-X---|
|-----4  S  1---X-X-4--1--4  S  1---X-X----X-X----X-X---|


|---------------------------------------------------------------------------|
|---------------------------------------------------------------------------|
|---------------------------------------------------------------------------|
|-X-X-4  S  1---X-X-4--1--4  S ---------------------------------------------|
|-X-X-4  S  1---X-X-4--1--4  S  0-------------------------------------------|
|-X-X-4  S  1---X-X-4--1--4  S  0---0-0-0-0-0-0-0-12-12-12-12-12-12-12-12---|


|-------------------------------------------------------|
|-------------------------------------------------------|
|-------------------------------------------------------|
|-----4  S  1---X-X-4--1--4  S  1---X-X----X-X----X-X---|
|-----4  S  1---X-X-4--1--4  S  1---X-X----X-X----X-X---|
|-----4  S  1---X-X-4--1--4  S  1---X-X----X-X----X-X---|

|----------------------------------------------------------------------|
|----------------------------------------------------------------------|
|----------------------------------------------------------------------|
|-X-X-4  S  1--X-X-4--1--4  S -----------------------------------------|
|-X-X-4  S  1--X-X-4--1--4  S  0---------------------------------------|
|-X-X-4  S  1--X-X-4--1--4  S  0---0-12-12-12-12-12-12-12-12-12-12-12\-|


0:49-1:06
|-------------------------------------------------------------------|
|-------------------------------------------------------------------|
|----------------------------------------------------6--6-----------|
|-0--0--0-------0--0-----0--0------------8\--0-0-----6--6-----------| x2
|-0--0--0-------0--0-----0--0---—4h7p4p0-8\--0-0-----4--4--X-X------|
|-0--0--0-------0--0-----0--0--0---------8\--0-0------—----X-X------|
                               .

1:06-1:19
|--------------------------------------------------------------------|
|--------------------------------------------------------------------|
|--------------------------------------------------------------------|
|-0--0--0--X-X-X-X-0--0--X-X-X-X-X-X-0--0--0--X-X-X-X-0--0--0-0 S----|
|-0--0--0--X-X-X-X-0--0--X-X-X-X-X-X-0--0--0--X-X-X-X-0--0--0-0 S----|
|-0--0--0--X-X-X-X-0--0--X-X-X-X-X-X-0--0--0--X-X-X-X-0--0--0-0 S----|

|-----------------------------------------------------------------------|
|-----------------------------------------------------------------------|
|----------------------------------------------------------------6--6 S-|
|-0--0--0--X-X-X-X-0--0--X-X-X-X-X-X-0--0------------8\--0-0-----6--6 S-|
|-0--0--0--X-X-X-X-0--0--X-X-X-X-X-X-0--0----4h7p4p0-8\--0-0-----4--4 S-|
|-0--0--0--X-X-X-X-0--0--X-X-X-X-X-X-0--0--0---------8\--0-0------------|
                                           .

1:19-1:35 (Here's the chorus. Figure out the number of strums on your own. They're too 
to include all. ;d It's very easy, just move to the following corresponding fret when you 
the chord changing. The strumming pattern is consistent so...)
|---------------------------------------------------------------|
|---------------------------------------------------------------|
|---------------------------------------------------------------|
|-4-4-4-4-4-4-4-4-0-0-0-0-0-0-0-9-9-9-9-9-9-9-4-4-4-4-0-0-0-0---|
|-4-4-4-4-4-4-4-4-0-0-0-0-0-0-0-9-9-9-9-9-9-9-4-4-4-4-0-0-0-0---|
|-4-4-4-4-4-4-4-4-0-0-0-0-0-0-0-9-9-9-9-9-9-9-4-4-4-4-0-0-0-0---|

1:35-1:51

x2
|---------------------------------------------------------------------------|
|---------------------------------------------------------------------------|
|-----------------------------------------------------------------7-7---777-|
|-----------------------------------------------------------------6-6---666-|
|-----------------------------------------------------------------5-5---555-|
|-4---1---1 S 1---1---1---1 S 1---1---1—--X-X-4---1---1 S 1---1-------0-----|
                                          . .                         .

1:51-2:06
(Drum break... dundunduntsdundundunduruts... then this)
|-------------------|
|-------------------|
|---7\---7 S 7 S 7\-|
|---6\---6 S 6 S 6\-| x2
|---5\---5 S 5 S 5\-|
|-------------------|

2:07-2:23

|-------------------------------------------------------|
|-------------------------------------------------------|
|-------------------------------------------------------|
|-----4  S  1---X-X-4--1--4  S  1---X-X----X-X----X-X---|
|-----4  S  1---X-X-4--1--4  S  1---X-X----X-X----X-X---|
|-----4  S  1---X-X-4--1--4  S  1---X-X----X-X----X-X---|

|---------------------------------------------------------------------------|
|---------------------------------------------------------------------------|
|---------------------------------------------------------------------------|
|-X-X-4  S  1---X-X-4--1--4  S ---------------------------------------------|
|-X-X-4  S  1---X-X-4--1--4  S  0-------------------------------------------|
|-X-X-4  S  1---X-X-4--1--4  S  0---0-0-0-0-0-0-0-12-12-12-12-12-12-12-12---|


|-------------------------------------------------------|
|-------------------------------------------------------|
|-------------------------------------------------------|
|-----4  S  1---X-X-4--1--4  S  1---X-X----X-X----X-X---|
|-----4  S  1---X-X-4--1--4  S  1---X-X----X-X----X-X---|
|-----4  S  1---X-X-4--1--4  S  1---X-X----X-X----X-X---|

|----------------------------------------|
|----------------------------------------|
|----------------------------------------|
|-X-X-4  S  1--X-X-4--1--4 S 0 S---------|
|-X-X-4  S  1--X-X-4--1--4 S 0 S---------|
|-X-X-4  S  1--X-X-4--1--4 S 0 S---------|


2:23-2:47


|--------------------------------------------------------------------|
|--------------------------------------------------------------------|
|--------------------------------------------------------------------|
|-0--0--0--X-X-X-X-0--0--X-X-X-X-X-X-0--0--0--X-X-X-X-0--0--0-0 S----|  x2
|-0--0--0--X-X-X-X-0--0--X-X-X-X-X-X-0--0--0--X-X-X-X-0--0--0-0 S----|
|-0--0--0--X-X-X-X-0--0--X-X-X-X-X-X-0--0--0--X-X-X-X-0--0--0-0 S----|

|--------------------------------------------------|
|--------------------------------------------------|
|--------------------------------------------------|
|-0--0--0  S  0--0  S     0--0--0  S  0--0--0-0 S--|   x2
|-0--0--0  S  0--0  S     0--0--0  S  0--0--0-0 S--|
|-0--0--0  S  0--0  S     0--0--0  S  0--0--0-0 S--|


2:47-3:02

|---------------------------------------------------------------|
|---------------------------------------------------------------|
|---------------------------------------------------------------|
|-4-4-4-4-4-4-4-4-0-0-0-0-0-0-0-9-9-9-9-9-9-9-4-4-4-4-0-0-2-2---|
|-4-4-4-4-4-4-4-4-0-0-0-0-0-0-0-9-9-9-9-9-9-9-4-4-4-4-0-0-2-2---|
|-4-4-4-4-4-4-4-4-0-0-0-0-0-0-0-9-9-9-9-9-9-9-4-4-4-4-0-0-2-2---|

3:03-3:36
Guitar 1 (This is the chorus again, but the strumming pattern changes. Listen to the 
to figure it out.)
|----------------------------------------------------------------------------|
|----------------------------------------------------------------------------|
|----------------------------------------------------------------------------|
|4---4---4-4---0---0---0-0---9---9---9-9---0---0---0-0 S  0-0 S 2---2 S------|
|4---4---4-4---0---0---0-0---9---9---9-9---0---0---0-0 S  0-0 S 2---2 S------|
|4---4---4-4---0---0---0-0---9---9---9-9---0---0---0-0 S  0-0 S 2---2 S------|

|-------------------------------------------------------------------------|
|-------------------------------------------------------------------------|
|-------------------------------------------------------------------------|
|4---4---4-4---0---0---0-0---9---9---9-9---0---0---0-0 S  --2-------------|
|4---4---4-4---0---0---0-0---9---9---9-9---0---0---0-0 S  --2-------------|
|4---4---4-4---0---0---0-0---9---9---9-9---0---0---0-0 S  --2-------------|


Guitar 2 (All notes displayed are tremolo picked, therefore you'll have to listen to the 
to know when to change note. Can't display 999999 of them.)

|--14---16---17---19---14--16--17--19--14--16--17--19-----17------16-----|
|------------------------------------------------------------------------|
|------------------------------------------------------------------------|
|------------------------------------------------------------------------| x2
|------------------------------------------------------------------------|
|------------------------------------------------------------------------|


3:36-4:10 (Gradually decrease tempo)
|-----------------------------------------------------------|
|-----------------------------------------------------------|
|-----------------------------------------------------------|
|--0---0---0 S----0 S----0 S----0---0---0 S----0 S----0 S---| x2
|--0---0---0 S----0 S----0 S----0---0---0 S----0 S----0 S---|
|--0---0---0 S----0 S----0 S----0---0---0 S----0 S----0 S---|

|-----------------------------------------------------------|
|-----------------------------------------------------------|
|-----------------------------------------------------------|
|--0---0---0 S----0 S----0 S----0---0---0-0 S----0 S----0~--|
|--0---0---0 S----0 S----0 S----0---0---0-0 S----0 S----0~--|
|--0---0---0 S----0 S----0 S----0---0---0-0 S----0 S----0~--|

            
            
Suggest correction
Creating personal tab
Creating personal tab
You can edit any tab online and save it as your Personal.

You can edit, replace or remove any tab part or add personal notes – all changes will be seen only by you.

Personal tabs can be accessed anytime from any device, even offline.
Learn more »
Give kudos to tab author, rate the tab!
1 2 3 4 5
comments
print report bad tab
guest
You may want to rate the tab now too:
select rating
Wanna post a correction for this tab? Suggest correction