Oops, an error
Loading. Please wait.

San Dimas tab

version 1
version 1

Whole song

2,494 views 1 this week
8 commentsread comments
1 2 3 4 5
x 6
add to favorites
×
Save as Personal and add changes to this tab that will be seen only by you. Learn more ›
×
You can save this tab as Personal to edit and correct it or add notes. All changes will be seen only by you. Learn more »
launch autoscroll
font size
0
reset
how to read this tab
guitar tuner
edit
Autoscroll
slow
fast
+/-
esc
set tempo
stop
San Dimas
Dead And Divine

Drop C-

My Names In Lights!
||--------------------------------------------------|
||--------------------------------------------------|
||--------------------------------------------------|
||-0-0000-5-7--8-5-3-5-8-5---0-0000-5-7-8-8-8-8888-8|  x2
||-0-0000-5-7----------------0-0000-5-7-8-8-8-8888-8|
||-0-0000-5-7----------------0-0000-5-7-8-8-8-8888-8|
   
||---------------------------------------------|
||---------------------------------------------|
||---------------------------------------------|
||-0-0000-5-7-8slide0--0-0000-5-7-8-8-8-8888-8-|  x2
||-0-0000-5-7-8slide0--0-0000-5-7-8-8-8-8888-8-|
||-0-0000-5-7-8slide0--0-0000-5-7-8-8-8-8888-8-|
                     
||--------------------------------------------------|
||--------------------------------------------------|
||--------------------------------------------------|
||-0-0000-0-0-0---0-0000-0-0-0-3hammeron5-5hammeron7| x2
||-0-0000-0-0-0---0-0000-0-0-0-3hammeron5-5hammeron7|
||-0-0000-0-0-0---0-0000-0-0-0-3hammeron5-5hammeron7|
   
||-----------------------------------|
||-----------------------------------|
||-----------------------------------|
||-0-0-3-0-5-3535353--0-0-3-0-5-35353| x2
||-0-0-3-0-5-3535353--0-0-3-0-5-35353|
||-0-0-3-0-5-3535353--0-0-3-0-5-35353|

(Slow Part)
||------------|
||------------|
||------------|
||-3--7777-7-7| x2
||-3--7777-7-7|
||-3--7777-7-7|

||--------------------------------------------------|
||--------------------------------------------------|
||--------------------------------------------------|
||-0-0000-5-7--8-5-3-5-8-5---0-0000-5-7-8-8-8-8888-8| “Two Three Four”
||-0-0000-5-7----------------0-0000-5-7-8-8-8-8888-8|
||-0-0000-5-7----------------0-0000-5-7-8-8-8-8888-8|

||--------------------------------------------|
||--------------------------------------------|
||--------------------------------------------| x2
||-0-0000-5-7-8slide0--0-0000-5-7-8-8-8-8888-8|
||-0-0000-5-7-8slide0--0-0000-5-7-8-8-8-8888-8|
||-0-0000-5-7-8slide0--0-0000-5-7-8-8-8-8888-8|


I Don’t Know The Ending. It Starts W/ Weird Chords And then Play:
||---------------------------------------------------|
||---------------------------------------------------|
||---------------------------------------------------|
||-3--7777-7-7—x2—6666-6-6-6666-6-6-6666-6-6-6666-6-6|
||-3--7777-7-7----6666-6-6-6666-6-6-6666-6-6-6666-6-6|
||-3--7777-7-7----6666-6-6-6666-6-6-6666-6-6-6666-6-6|

That’s It.
D&D Are God!
Email if u have any corrections/ the weird chords.
pictures_of_the_invisible@hotmail.com

Ian Wilson.

            
            
Suggest correction
Creating personal tab
Creating personal tab
You can edit any tab online and save it as your Personal.

You can edit, replace or remove any tab part or add personal notes – all changes will be seen only by you.

Personal tabs can be accessed anytime from any device, even offline.
Learn more »
comments
print report bad tab
8 comments total. Showing first comments.
0 reply
punkrockelite 30 May 05, 2008 01:26 PM

not TOO bad but hard to follow and some parts are off nice try though! :D

0 reply
TylerHerod 10 May 11, 2008 01:02 PM

its okay, but its the first dead and divine tab that isnt accoustic,
so major props for that :)

0 reply
flydth3bArbr 10 May 14, 2008 12:50 PM

I haven't tried it out yet but I have to give you cred for posting a D&D tab besides Goodnight Quiet City. Mad props for that. And please please please you or anyone else that reads this WE NEED MORE D&D TABS!!!!!

guest
You may want to rate the tab now too:
select rating
Wanna post a correction for this tab? Suggest correction