Oops, an error
Loading. Please wait.

San Dimas tab

version 2
version 2

Whole song

3,689 views 1 this week
3 commentsread comments
1 2 3 4 5
x 5
add to favorites
×
Save as Personal and add changes to this tab that will be seen only by you. Learn more ›
×
You can save this tab as Personal to edit and correct it or add notes. All changes will be seen only by you. Learn more »
launch autoscroll
font size
0
reset
how to read this tab
guitar tuner
edit
Autoscroll
slow
fast
+/-
esc
set tempo
stop
Okay So This Tab Is The High Quality Verison San Dimas Off Of Dead and Divines Myspace
The Other Verison Had Some Parts That Were Right And Some A Little Off But It Was A Good
Some Of The Higher(Ish) Parts Aren't Tabbed Out. Any Questions About This Tab, My E-mail 
hollywood_x_is_x_undead@hotmail.com, Enjoy :]

Tuning (Low To High): CGCFAD

"MY NAME'S IN LIGHTS!"

||-------------------------------------------------------------|
||----------------------------------------------7---7--9---9---|
||-------------3---------3------------------3s8---8------8---8-|
||-0-000-3-5-----5-3h5p3---3-5--0-000-3-5----------------------|  X2
||-0-000-3-5--------------------0-000-3-5----------------------|
||-0-000-3-5--------------------0-000-3-5----------------------|

"It's Where The Woman Want!"

||------------------------------------------|
||------------------------------------------|
||------------------------------------------|
||-0-000-3-5--8s0--0-000-3-5--8-88888-8-10--|  X2
||-0-000-3-5--8s0--0-000-3-5--8-88888-------|
||-0-000-3-5--8s0--0-000-3-5--8-88888-------|
                                 ***
"And God's Shaking Hands...With The Devil"

||---------------------------------------------------------------------|
||---------------------------------------------------------------------|
||-------------------------3s5-5s7--------------------------5s7-7s10---|
||-0-000-0-0----0-000-0-0--xsx-xsx--0-000-0-0----0-000-0-0--xsx-xsx----|
||-0-000-0-0----0-000-0-0--1s3-3s5--0-000-0-0----0-000-0-0--3s5-5s8----|
||-0-000-0-0----0-000-0-0-----------0-000-0-0----0-000-0-0-------------|

"And It Seems As Though"

||-----------------------------------|
||-----------------------------------|
||-----------------------------------|
||-0-3-5--3p0-3p0-3--0-3-5--3p0-3p0--|X2
||-0-3----3p0-3p0----0-3----3p0-3p0--|
||-0-3----3p0-3p0----0-3----3p0-3p0--|

(Very Quick Pause)

||---|
||---|
||---|
||-0-|
||-0-|
||-0-|

(Little Drum Solo)

"And I Swear"

||--------------------------------------------------------------------|
||-----------------6-6-6-----------------6-6-6------------------------|
||-5~~~~5~~~s7------5-5-5-----------------5-5-5-----------------------|
||-3~~~~3~~~s5--00---------00007-07---00----------00007-07------------| X2
||-3~~~~3~~~s5--00---------00007-07---00----------00007-07------------|
||-3~~~~3~~~s5--00---------00007-07---00----------00007-07------------|
                **         ****  *    **          ****  *

||-------------------------------------------------------------|
||-------------------------------------------------------------|
||-------------3---------3-------------------------------------|
||-0-000-3-5-----5-3h5p3---3-5--0-000-3-5--8s0-----------------|
||-0-000-3-5--------------------0-000-3-5--8s0-----------------|
||-0-000-3-5--------------------0-000-3-5--8s0-----------------|

(Pause) "TWO, THREE, FOUR!"

||-------------------------------------------|
||-------------------------------------------|
||-------------------------------------------|
||-0-000-3-5--8s0--0-000-3-5--8-88888-8-10---|  X2
||-0-000-3-5--8s0--0-000-3-5--8-88888--------|
||-0-000-3-5--8s0--0-000-3-5--8-88888--------|
                                 ***

"She Was Bad News, She Smoked Her Cigarettes Slow"

||-----------------------------------|
||-----------------------------------|
||-----------------------------------|
||-0-3-5--3p0-3p0-3--0-3-5--3p0-3p0--|
||-0-3----3p0-3p0----0-3----3p0-3p0--|
||-0-3----3p0-3p0----0-3----3p0-3p0--|

||-------------------------------|
||-------------------------------|
||-------------------------------|
||-0-3-5--3p0-3p0-3--0-3-5--3p0--|
||-0-3----3p0-3p0----0-3----3p0--|
||-0-3----3p0-3p0----0-3----3p0--|


"SHE KILLED ROCK N' ROLL!"

||----------------------------------|
||----------------------------------|
||----------------------------------|
||-0-3-5B(1/2)-0-3-5B(1/4)-3p0-3p0--|X2
||-0-3---------0-3---------3p0-3p0--|
||-0-3---------0-3---------3p0-3p0--|

||---|
||---|
||---|
||-0-|
||-0-|
||-0-|

(Pause)

||------|
||------|
||--14--|Vibrato Fade In
||------|
||------|
||------|

||----------------------------------------------|
||----------------------------------------------|
||----------------------------------------------|
||-0~~0~~3~~3~~0~~5~~5555555555555555--333333333|
||-0~~0~~3~~3~~0~~5~~5555555555555555--333333333|
||-0-~0~~3~~3~~0~~5~~5555555555555555--333333333|
                     ****************

(Pause)"And I Swear!"

||-------------------------------------------------------------|
||------------6-6-6-----------------6-6-6----------------------|
||-5~~~s7------5-5-5-----------------5-5-5---------------------|
||-3~~~s5--00---------0007-07---00----------0007-07------------|
||-3~~~s5--00---------0007-07---00----------0007-07------------|
||-3~~~s5--00---------0007-07---00----------0007-07------------|
           **         ***  *    **          ***  *

"To Try And Stop Me"

||------------------------------------------------------------------|
||-----------------6-6-6-----------------6-6-6----------------------|
||-5~~~~5~~~s7------5-5-5-----------------5-5-5---------------------|
||-3~~~~3~~~s5--00---------0007-07---00----------0007-07------------|
||-3~~~~3~~~s5--00---------0007-07---00----------0007-07------------|
||-3~~~~3~~~s5--00---------0007-07---00----------0007-07------------|
                **         ***  *    **          ***  *

"FROM FEELING YOU!"

||----------------------------------------------------|
||-------0-0-0---------------0-0-0--------------------|
||------5-5-5---------------5-5-5---------------------|
||---0---------0007-07---0---------0007-07------------|
||---0---------0007-07---0---------0007-07------------|
||---0---------0007-07---0---------0007-07------------|
     *         ***  *    *         ***  *

            
            
Suggest correction
Creating personal tab
Creating personal tab
You can edit any tab online and save it as your Personal.

You can edit, replace or remove any tab part or add personal notes – all changes will be seen only by you.

Personal tabs can be accessed anytime from any device, even offline.
Learn more »
comments
print report bad tab
3 comments total.
0 reply
metal_666_man 10 Aug 11, 2008 05:56 PM

solid tab, good job man
theres deff gotta be a lot more dead and divine one here

+1 reply
metal_666_man 10 Aug 11, 2008 05:57 PM

solid tab, good job man
theres deff gotta be a lot more dead and divine on here

+1 reply
Thurman91 10 Dec 06, 2009 11:19 AM

||-------------------------------------------------------------|
||----------------------------------------------7---7--9---9---|
||-------------3--------0-3-0---------------3s8---8------8---8-|
||-0-000-3-5------5-3-5---------0-000-3-5----------------------| X2
||-0-000-3-5--------------------0-000-3-5----------------------|
||-0-000-3-5--------------------0-000-3-5----------------------|

change the first riff to that and you got a pretty solid tab :)

guest
Wanna post a correction for this tab? Suggest correction