Oops, an error
Loading. Please wait.

The Sugar Sickness tab

version 2
version 2

Whole song

Interactive

2,374 views 1 this week
2 commentsread comments
1 2 3 4 5
x 3
add to favorites
×
Save as Personal and add changes to this tab that will be seen only by you. Learn more ›
×
You can save this tab as Personal to edit and correct it or add notes. All changes will be seen only by you. Learn more »
launch autoscroll
font size
0
reset
how to read this tab
guitar tuner
edit
Autoscroll
slow
fast
+/-
esc
set tempo
stop
Here's a correct tab of "The Sugar Sickness". :) This is my first tab, please comment & 
And if you feel like it, check out my cover of this song on youtube:

|----------------------------------------------------------|
|----------------------------------------------------------|
|----7------------------------------7----------3-3-3-3-3---|
|----6---3--5-----------------------6---3--5---5-5-5-5-5---|
|-0--5---3--5-----8-XX8--XX3/5---0--5---3--5---------------| x5
|-0------3--5—-0--8-XX8--XX3/5---0----—-3--5-0-------------|
                    ..   ..                  .

0:28-0:48
|-------------------------------------------------------|
|-------------------------------------------------------|
|----------------------------------------7-7-7--7-7-7---|
|----------------------------------------6-6-6--6-6-6---|
|--0-0--0-0----0--0-0--0--0—-XX1--XX0--XX5-5-5--5-5-5---|
|--0-0--0-0----0--0-0--0--0--XX1--XX0--XX---------------|
                             ..  ..   ..

|---------------------------------------------------|
|---------------------------------------------------|
|----------------------------------------777--777---|
|----------------------------------------666--666---|
|--0-0--0-0----0--0-0--0--0—-XX1--XX0--XX555--555---|
|--0-0--0-0----0--0-0--0--0--XX1--XX0--XX-----------|
                             ..   ..   ..

|-------------------------------------------------|
|-------------------------------------------------|
|-----------------------------------------7-7-7---|
|-----------------------------------------6-6-6---|
|---0--0-0----0--00----0--00----XX1--XX0--5-5-5---|
|---0--0-0----0--00----0--00----XX1--XX0----------|
                                ..   ..

|--------------------------------------------------------|
|--------------------------------------------------------|
|-----------------------------------------7-7-7--7-7-7---|
|-----------------------------------------6-6-6--6-6-6---|
|---0--0-0----0--00----0--00----XX1--XX0--5-5-5--5-5-5---|
|---0--0-0----0--00----0--00----XX1--XX0-----------------|
                                ..   ..
0:49-0:58
|-------------------------------------------------|
|6-6-6--6--6--6--6--6--6--6-6-6--6--6--6--6--6--6-|
|7-7-7--7--7--7--7--7--7--6-6-6--6--6--6--6--6--6-|
|0-0-0--------------------0-0-0-------------------|
|0-0-0--------------------0-0-0-------------------|
|0-0-0--------------------0-0-0-------------------|

---------------------------------------------|
-6-6-6--6--6--6-6-6--6--6--6-6-6--6--6--6~---|
-5-5-5--5--5--5-5-5--5--5--6-6-6--6--6--6~---|
-0-0-0--------0-0-0--------0-0-0-------------|
-0-0-0--------0-0-0--------0-0-0-------------|
-0-0-0--------0-0-0--------0-0-0-------------|

0:59-1:18
|--0-0-0-0----0---0---0---0-0---0-0---------------------|
|--X-X-X-X----X---X---X---X-X---X-X---------------------|
|--10101010---10--10--10—1010---1010--------------------|
|--8-8-8-8----8---8---8---8-8---8-8---------------------|
|--8-8-8-8----8---8—--8---8-8---8-8---------------------|
|--8-8-8-8----8---8—--8---8-8---8-8---------------------|
There isn’t a definitive strumming pattern here and it’s better to use a variation but 
one fits well.

|--0-0-0-0-----0---0---0---0-0---0-0---------------------|
|--X-X-X-X-----X---X---X---X-X---X-X---------------------|
|--10101010----10--10--10—-1010--1010--------------------|
|--7-7-7-7-----7---7---7---7-7---7-7---------------------|
|--7-7-7-7-----7---7—--7---7-7---7-7---------------------|
|--7-7-7-7-----7---7—--7---7-7---7-7---------------------|


|------------------------------------------------------------|
|---------------------------------10\---------6-6---6-6-6-6--|
|-----7------------7---7-7-7------10\---------7-7---7-7-7-7--|
|-----X------------X---X-X-X------X-----------X-X---X-X-X-X--|
|-(0)-5--XX--------5-XX5-5-5—(0)—-8\--XX------5-5-XX5-5-5-5--|
|--0-----XX0--0--0---XX-------0-------XX0—-0------XX---------|
         ..          ..               ..          ..

1:19-1:23
|--0-0-0-0----0---0---0---0-0---0-0---------------------|
|--X-X-X-X----X---X---X---X-X---X-X---------------------|
|--10101010---10--10--10—1010---1010--------------------|
|--8-8-8-8----8---8---8---8-8---8-8---------------------|
|--8-8-8-8----8---8—--8---8-8---8-8---------------------|
|--8-8-8-8----8---8—--8---8-8---8-8---------------------|
And there’s a second guitar here playing single notes but it’s insanely difficult to tab 
out precisely ‘cause you can barely hear it, so here’s the rhythm guitar again.

|--0-0-0-0-----0---0---0---0-0~------------------------|
|--X-X-X-X-----X---X---X---X-X-------------------------|
|--10101010----10--10--10—-1010~-----------------------|
|--7-7-7-7-----7---7---7---7-7~------------------------|
|--7-7-7-7-----7---7—--7---7-7~------------------------|
|--7-7-7-7-----7---7—--7---7-7~------------------------|

1:24-1:43
|----------------------------------------------------------|
|----------------------------------------------------------|
|----7------------------------------7----------3-3-3-3-3---|
|----6---3--5-----------------------6---3--5---5-5-5-5-5---|
|-0--5---3--5-----8-XX8--XX3/5---0--5---3--5---------------|
|-0------3--5—-0--8-XX8--XX3/5---0----—-3--5-0-------------|
                    ..   ..                  .


|----------------------------------------------------------|
|----------------------------------------------------------|
|----7------------------------------7----------------------|
|----6---3--5-----------------------6---3--5---------------|
|-0--5---3--5-----8-XX8--XX3/5---0--5---3--5---------------|
|-0------3--5—-0--8-XX8--XX3/5---0----—-3--5---------------|
                    ..   ..

|----------------------------------------------------------|
|----------------------------------------------------------|
|----7------------------------------7----------3-3-3-3-3---|
|----6---3--5-----------------------6---3--5---5-5-5-5-5---|  x2
|-0--5---3--5-----8-XX8--XX3/5---0--5---3--5---------------|
|-0------3--5—-0--8-XX8--XX3/5---0----—-3--5-0-------------|
                    ..   ..                  .


1:44-1:53
|----------------------------------------------------------|
|----------------------------------------------------------|
|----------------------------------------------------------|
|----------------------------------------------------------|
|-1-0-1-0--------------------------1-0-1-0-----------------|
|-1-0-1-0-*Harmonic run------------1-0-1-0-Harmonic run----|
*Slide finger slowly from the first fret on the E Low string (6th) to the fifth fret, 
picking eighths.

1:54-2:14
|---------------------------------------------------------------|
|---------------------------------------------------------------|
|-7-7-7—--7--7----7-7-7---7--7----7-7-7---7--7----7-7-7---7--7~-|
|-6-6-6---6--6----6-6-6---6--6----6-6-6---6--6----6-6-6---6--6~-|
|-5-5-5---5--5----5-5-5---5--5—---5-5-5---5--5----5-5-5---5--5~-|
|-0-0-0---0--0----0-0-0---0--0----0-0-0---0--0----0-0-0---0--0~-|

|---------------------------------------------------------------|
|---------------------------------------------------------------|
|-7-7-7—--7--7----7-7-7---7--7----7-7-7---7--7----7-7-7---7--7--|
|-6-6-6---6--6----6-6-6---6--6----6-6-6---6--6----6-6-6---6--6--|
|-5-5-5---5--5----5-5-5---5--5—---5-5-5---5--5----5-5-5---5--5--|
|-0-0-0---0--0----0-0-0---0--0----0-0-0---0--0----0-0-0---0--0--|

2:15-2:24
|----------------------------------------------------------|
|---------------*6-6-6-6-6-6-6---------------6-6-6-6-6-6-6-|
|-7-7-7—--7--7--*9-9-9-9-9-9-9-7-7-7---7--7--9-9-9-9-9-9-9-|
|-6-6-6---6--6-----------------6-6-6---6--6----------------|
|-5-5-5---5--5-----------------5-5-5---5--5—---------------|
|-0-0-0---0--0-----------------0-0-0---0--0----------------|
*Bend 9th fret slowly while picking both strings, so that at the last strum it will be 
for one step (a semitone). Listen to it and you'll understand what I'm talking about. :)
*

|----------------------------------------------------------|
|---------------*6-6-6-6-6-6-6---------------6-6-6-6-6-6-6-|
|-7-7-7—--7--7--*9-9-9-9-9-9-9-7-7-7---7--7--9-9-9-9-9-9-9-|
|-6-6-6---6--6-----------------6-6-6---6--6----------------|
|-5-5-5---5--5-----------------5-5-5---5--5—---------------|
|-0-0-0---0--0-----------------0-0-0---0--0----------------|

2:25-2:34
|-------------------------------------------------|
|6-6-6--6--6--6--6--6--6--6-6-6--6--6--6--6--6--6-|
|7-7-7--7--7--7--7--7--7--6-6-6--6--6--6--6--6--6-|
|0-0-0--------------------0-0-0-------------------|
|0-0-0--------------------0-0-0-------------------|
|0-0-0--------------------0-0-0-------------------|

---------------------------------------------|
-6-6-6--6--6--6-6-6--6--6--6-6-6--6--6--6~---|
-5-5-5--5--5--5-5-5--5--5--6-6-6--6--6--6~---|
-0-0-0--------0-0-0--------0-0-0-------------|
-0-0-0--------0-0-0--------0-0-0-------------|
-0-0-0--------0-0-0--------0-0-0-------------|

2:35-2:44
|---0-----0----0-----0-----0--------0-----0-----0-----0-----0------|
|-----6-----6----6-----6-----6--------6-----6-----6-----6-----6----|
|-7-----7-----7----7-----7--------6-----6-----6-----6-----6--------|
|------------------------------------------------------------------|
|------------------------------------------------------------------|
|------------------------------------------------------------------|

|---0-----0-----0-----0-----0--------0----0-----0-------------|
|-----6-----6-----6-----6-----6--------6----6-----6b~---------|
|-5-----5-----5-----5-----5--------6-----6----6--—6b~---------|
|-------------------------------------------------------------|
|-------------------------------------------------------------|
|-------------------------------------------------------------|

2:44-3:05
|--0-0-0-0----0---0---0---0-0---0-0---------------------|
|--X-X-X-X----X---X---X---X-X---X-X---------------------|
|--10101010---10--10--10—1010---1010--------------------|
|--8-8-8-8----8---8---8---8-8---8-8---------------------|
|--8-8-8-8----8---8—--8---8-8---8-8---------------------|
|--8-8-8-8----8---8—--8---8-8---8-8---------------------|


|--0-0-0-0-----0---0---0---0-0---0-0---------------------|
|--X-X-X-X-----X---X---X---X-X---X-X---------------------|
|--10101010----10--10--10—-1010--1010--------------------|
|--7-7-7-7-----7---7---7---7-7---7-7---------------------|
|--7-7-7-7-----7---7—--7---7-7---7-7---------------------|
|--7-7-7-7-----7---7—--7---7-7---7-7---------------------|


|------------------------------------------------------------|
|---------------------------------10\---------6-6---6-6-6-6--|
|-----7------------7---7-7-7------10\---------7-7---7-7-7-7--|
|-----X------------X---X-X-X------X-----------X-X---X-X-X-X--|
|-(0)-5--XX--------5-XX5-5-5—(0)—-8\--XX------5-5-XX5-5-5-5--|
|--0-----XX0--0--0---XX-------0-------XX0—-0------XX---------|
         ..          ..               ..          ..


3:06-3:14
|--0-0-0-0----0---0---0---0-0---0-0----------------------|
|--X-X-X-X----X---X---X---X-X---X-X----------------------|
|--10101010---10--10--10—1010---1010---------------------|
|--8-8-8-8----8---8---8---8-8---8-8----------------------|
|--8-8-8-8----8---8—--8---8-8---8-8----------------------|
|--8-8-8-8----8---8—--8---8-8---8-8----------------------|
                                                              x2

|--0-0-0-0-----0---0---0---0-0---0-0---------------------|
|--X-X-X-X-----X---X---X---X-X---X-X---------------------|
|--10101010----10--10--10—-1010--1010--------------------|
|--7-7-7-7-----7---7---7---7-7---7-7---------------------|
|--7-7-7-7-----7---7—--7---7-7---7-7---------------------|
|--7-7-7-7-----7---7—--7---7-7---7-7---------------------|

3:15-3:25
Guitar 1
|---------------------------------------------------------------------------|
|-----------------------------------------------------10-10-10b---10-10-10b-|
|-7-7-7-9-9-9-10-10-------9-9-9-10-10-------7-7-9-9-9-----------------------|
|-------------------7-7-7-------------8-8-8---------------------------------|
|---------------------------------------------------------------------------|
|---------------------------------------------------------------------------|
                                                                                    x2
Guitar 2
|-----------------------------------------------------------------|
|-----------------------------------------------------------------|
|-----------------------------------------------------------------|
|-0-0-0-0-0-0-0-0-3-3-3-3-3-3-3-3-5-5-5-5-5-5-5-5-7-7-7-7-7-7-7-7-|
|-0-0-0-0-0-0-0-0-3-3-3-3-3-3-3-3-5-5-5-5-5-5-5-5-7-7-7-7-7-7-7-7-|
|-0-0-0-0-0-0-0-0-3-3-3-3-3-3-3-3-5-5-5-5-5-5-5-5-7-7-7-7-7-7-7-7-|

3:26-3:48
Guitar 1
|13-13-13-10-10-10-12-12-12-------------------------------------|
|---------------------------10-10-10-11-11-11----------10-10-10-|
|---------------------------------------------12-12-12----------|
|---------------------------------------------------------------|
|---------------------------------------------------------------|
|---------------------------------------------------------------|

----------------------------|
----------------------------|
-10-10-10-12-12-9-9-9-9-9-9-|                                           x2
----------------------------|
----------------------------|
----------------------------|

Guitar 2
|-----------------------------------------------------------------|
|-----------------------------------------------------------------|
|-----------------------------------------------------------------|
|-0-0-0-0-0-0-0-0-3-3-3-3-3-3-3-3-5-5-5-5-5-5-5-5-7-7-7-7-7-7-7-7-|
|-0-0-0-0-0-0-0-0-3-3-3-3-3-3-3-3-5-5-5-5-5-5-5-5-7-7-7-7-7-7-7-7-|
|-0-0-0-0-0-0-0-0-3-3-3-3-3-3-3-3-5-5-5-5-5-5-5-5-7-7-7-7-7-7-7-7-|

ENDING
|---------|
|--6------|
|--X------|
|--0------|
|--0------|
|--0------|

            
            
Suggest correction
Creating personal tab
Creating personal tab
You can edit any tab online and save it as your Personal.

You can edit, replace or remove any tab part or add personal notes – all changes will be seen only by you.

Personal tabs can be accessed anytime from any device, even offline.
Learn more »
Give kudos to tab author, rate the tab!
1 2 3 4 5
comments
print report bad tab
2 comments total.
0 reply
zack_ritch 208 Oct 20, 2010 12:28 PM

This is absolutely spot on! thanks so much!!

0 reply
Omonoiatis8 94 Mar 31, 2011 06:15 AM

You're welcome :)

guest
You may want to rate the tab now too:
select rating
Wanna post a correction for this tab? Suggest correction