Oops, an error
Loading. Please wait.

Roky Said tab

3,406 views 6 this week
1 commentread comment
1 2 3 4 5
x 5
add to favorites
×
Save as Personal and add changes to this tab that will be seen only by you. Learn more ›
×
You can save this tab as Personal to edit and correct it or add notes. All changes will be seen only by you. Learn more »
launch autoscroll
font size
0
reset
how to read this tab
guitar tuner
edit
Autoscroll
slow
fast
+/-
esc
set tempo
stop
Author
Difficulty
This is my first tab :$

I think this the better way to play the song


Enjoy

Chords that you will use

C     E     Am    D     G     A    Em          
e|---3-----7-----5-----5-----3-----5----7--------------------|
B|---5-----9-----5-----7-----3-----5----8--------------------|
G|---5-----9-----5-----7-----4-----6----9--------------------|
D|---5-----9-----7-----7-----5-----7----9--------------------|
A|---3-----7-----7-----5-----5-----7----7--------------------|
E|---x-----x-----5-----x-----3-----5----x--------------------|



        Intro
e|-----------17~~~~~------15~~~~------17~~~~------15~~~~--------------------------------|
B|-----------18~~~~~------16~~~~------18~~~~------16~~~~--------------------------------|
G|-----------19~~~~~------17~~~~------19~~~~------17~~~~--------------------------------|
D|-----------19~~~~~------17~~~~------19~~~~------17~~~~--------------------------------|
A|--------------------------------------------------------------------------------------|
E|--------------------------------------------------------------------------------------|

       First Riff
e|----------12---------10---------------------------------------------------------------|
B|--------13--13-----12--12--------10--------8-------5------3--------10--------8--------|
G|------14---------12------------11--11-----9-------6-6----4-------11--11-----9----x2---|
D|-----------------------------12---------10-------7------5------12---------10----------|
A|--------------------------------------------------------------------------------------|
E|--------------------------------------------------------------------------------------|

 It's so easy to lead when there's no one in line ....

e|--------------------------------------------------------------------------------------|
B|------------5------3--------10--------8-----------------------------------------------|
G|-----------6-6----4-4-----11--11-----9------------------------------------------------|
D|----------7------5------12---------10-------------------------------------------------|
A|--------------------------------------------------------------------------------------|
E|--------------------------------------------------------------------------------------|
  
      don't forget Roky said to leave your body behind

       Believe me I'll be down on the floor
       you won't think about me anymore
 
e|----------12---------10---------------------------------------------------------------|
B|--------13--13-----12--12--------10--------8-------5------3--------10--------8--------|
G|------14---------12------------11--11-----9-------6-6----4-------11--11-----9----x3---|
D|-----------------------------12---------10-------7------5------12---------10----------|
A|--------------------------------------------------------------------------------------|
E|--------------------------------------------------------------------------------------|

       You leave me low, no hope, alone forever

e|----------12---------10---------------------------------------------------------------|
B|--------13--13-----12--12--------12---------10----------------------------------------|
G|------14---------12------------13--13-----11------------------------------------------|
D|-----------------------------14---------12--------------------------------------------|
A|--------------------------------------------------------------------------------------|
E|--------------------------------------------------------------------------------------|

     C     E     Am    D     G     A    Em          
e|---3-----7-----5-----5-----3-----5----7--------------------|
B|---5-----9-----5-----7-----3-----5----8--------------------|
G|---5-----9-----5-----7-----4-----6----9--------------------|
D|---5-----9-----7-----7-----5-----7----9--------------------|
A|---3-----7-----7-----5-----5-----7----7--------------------|
E|---x-----x-----5-----x-----3-----5----x--------------------|



          C            E

But don't close your eyes

      
          Am                    D        C

just come over, that way you'll find


             G               A              E

that there's no one else 


 C                  E   

  When the sun goes down


   A                   D         

it gets colder in this town 

 
  C                      G             A

       and still there's no one else

 
        Riff!
e|----------12---------10---------------------------------------------------------------|
B|--------13--13-----12--12--------10--------8-------5------3--------10--------8--------|
G|------14---------12------------11--11-----9-------6-6----4-------11--11-----9----x2---|
D|-----------------------------12---------10-------7------5------12---------10----------|
A|--------------------------------------------------------------------------------------|
E|--------------------------------------------------------------------------------------|
|

       The sun scrapes over the sky as your friends move along

e|--------------------------------------------------------------------------------------|
B|------------5------3--------10--------8-----------------------------------------------|
G|-----------6-6----4-4-----11--11-----9------------------------------------------------|
D|----------7------5------12---------10-------------------------------------------------|
A|--------------------------------------------------------------------------------------|
E|--------------------------------------------------------------------------------------|

        and don't forget Roky said you're gonna miss me when I'm gone 
        
        Girl I'm six feet in the ground 
        there's no pick me up for me in this town 
        just leave me low 
        no hope, alone forever       

e|----------12---------10---------------------------------------------------------------|
B|--------13--13-----12--12--------10--------8-------5------3--------10--------8--------|
G|------14---------12------------11--11-----9-------6-6----4-------11--11-----9----x3---|
D|-----------------------------12---------10-------7------5------12---------10----------|
A|--------------------------------------------------------------------------------------|
E|--------------------------------------------------------------------------------------|

        

       C            E

But don't close your eyes

      
          Am                    D        C

just come over, that way you'll find


             G               A              E

that there's no one else 


 C                  E   

  When the sun goes down


   A                   D         

it gets colder in this town 

 
  C                      G             A

       and still there's no one else

         

         Last Riff 
e|----------12---------10---------------------------------------------------------------|
B|--------13--13-----12--12--------10--------8-------5------3--------10--------8--------|
G|------14---------12------------11--11-----9-------6-6----4-------11--11-----9---------|
D|-----------------------------12---------10-------7------5------12---------10----------|
A|--------------------------------------------------------------------------------------|
E|--------------------------------------------------------------------------------------|


          
e|--------------------------------------------------------------------------------------|
B|------------5------3--------10--------8-----------------------------------------------|
G|-----------6-6----4-4-----11--11-----9--------x4--------------------------------------|
D|----------7------5------12---------10-------------------------------------------------|
A|--------------------------------------------------------------------------------------|
E|--------------------------------------------------------------------------------------|

e|----------12---------10---------------------------------------------------------------|
B|--------13--13-----12--12--------10--------8-------5------3--------10--------8--------|
G|------14---------12------------11--11-----9-------6-6----4-------11--11-----9---------|
D|-----------------------------12---------10-------7------5------12---------10----------|
A|--------------------------------------------------------------------------------------|
E|--------------------------------------------------------------------------------------|


END! Thank you!






























            
            
Suggest correction
Creating personal tab
Creating personal tab
You can edit any tab online and save it as your Personal.

You can edit, replace or remove any tab part or add personal notes – all changes will be seen only by you.

Personal tabs can be accessed anytime from any device, even offline.
Learn more »
comments
print report bad tab
1 comment total.
0 reply
pablin98 10 Dec 10, 2014 07:53 PM

Nice Tab! <3
I Love It!

guest
You may want to rate the tab now too:
select rating
Wanna post a correction for this tab? Suggest correction