Oops, an error
Loading. Please wait.

Halloween bass

3,827 views 15 this week
1 commentread comment
1 2 3 4 5
2 more votes to show rating
add to favorites
×
Save as Personal and add changes to this tab that will be seen only by you. Learn more ›
×
You can save this tab as Personal to edit and correct it or add notes. All changes will be seen only by you. Learn more »
launch autoscroll
font size
0
reset
guitar tuner
edit
Autoscroll
slow
fast
+/-
esc
set tempo
stop
Author
Tabbed by: UberBenny
e-mail: assasinlad@gmail.com

Standard Tuning (E A D G)

x=muted note
v=bend up

Lets call this the Main Riff

G|--------------------------------------------------------------------------|
D|-----------------------------------------------------------(play--set-x9)-|
A|--------------------------------------------------------------------------|
E|-3-6-8-888--x-6-8-888--x-6-8-888--x-6-8-888-------------------------------|

Then the filler

G|--------------------------------------------------------------------------|
D|--------------------------------------------------------------------------|
A|--------------------------------------------------------------------------|
E|-8-11-13-131313--x-11-13-131313-------------------------------------------|

Back to the main riff

G|--------------------------------------------------------------------------|
D|-------------------------------------------------------(only play twice)--|
A|--------------------------------------------------------------------------|
E|-3-6-8-888--x-6-8-888--x-6-8-888--x-6-8-888-------------------------------|

then a fall down

G|--------------------------------------------------------------------------|
D|--------------------------------------------------------------------------|
A|--------------------------------------------------------------------------|
E|-8-13-11-111111-x-8-6-3-333-x3-6-8-888------------------------------------|

then at 1:32 it stop the repetitive stuff and goes to

G|--------------------------------------------------------------------------|
D|--------------------------------------------------------------------------|
A|----------------(elevens)-------------------------------------------------|
E|-6-6-11-11-1111----------x-x-10-10-1010(4-times)-3x6-8-888----------------|

Tah Dah and that's Halloween by DK

repeat however long you want your Dead Kennedys experience to last!

            
            
Suggest correction
Creating personal tab
Creating personal tab
You can edit any tab online and save it as your Personal.

You can edit, replace or remove any tab part or add personal notes – all changes will be seen only by you.

Personal tabs can be accessed anytime from any device, even offline.
Learn more »
Give kudos to tab author, rate the tab!
1 2 3 4 5
comments
print report bad tab
1 comment total.
+1 reply
dentalpickable 10 Dec 27, 2012 05:52 AM

Question: Why would you transcribe all of this to the E string it's way easier to actually change strings. The bass has 4 strings. That's more than 1. Please, use them.

guest
You may want to rate the tab now too:
select rating
Wanna post a correction for this tab? Suggest correction