Oops, an error
Loading. Please wait.
We have an official Holiday In Cambodia tab made by UG professional guitarists. Check out the tab »
×
54,738 views 126 this week
2 commentsread comments
1 2 3 4 5
x 33
add to favorites
×
Save as Personal and add changes to this tab that will be seen only by you. Learn more ›
×
You can save this tab as Personal to edit and correct it or add notes. All changes will be seen only by you. Learn more »
launch autoscroll
font size
0
reset
transpose
0
reset
display chords
guitar tuner
backing track
0:00
0:00
edit
Autoscroll
slow
fast
+/-
esc
set tempo
stop
Author
Unregistered
Strumming
There is no strumming pattern for this song yet. and get +5 IQ
[Intro]
e|-------------------------------------------------------------------------|
B|-------------------------------------------------------------------------|
G|-------------------------------------------------------------------------|
D|--------------------------7-7-7------------------------------------------|
A|----------7-6---------9-8---------7-6---------9-8------------------------|
E|--8-8-8-5-----8-8-8-5-----------5-----8-8-8-5----------------------------|

    <-       repeat   4x?   -> |  <-               riff 1               ->
e|------------------------------|------------------------------------------|
B|------------------------------|------------------------------------------|
G|------------------------------|------------------------------------------|
D|------------------------------|------------------------------------------|
A|------------------------------|------------------------------------------|
E|------8-8-8-7---6---5-5-5-----|----------8-8-8---7------6-----5-5-5------|
                                  so you been to school for a year or two
[Verse 1]
(riff 1)
So you been to school for a year or two
And you know you've seen it all
In daddy's car thinkin' you'll go far
Back east your type don't crawl
     G                D                          
Play ethnicky jazz to parade your snazz
        G               D
On your five grand stereo
G                             D
Braggin that you know how the niggers feel cold
        G                 D
And the slums got so much soul

[Pre-Chorus]
     D       C          G   C    A
It's time to taste what you most fear
D           C        G    C   A
Right Guard will not help you here
A         B        C   B
Brace yourself, my dear
A         B        C   D
Brace yourself, my dear

[Chorus]
       A          C  D
It's a holiday in Cambodia
C    A             C    D
It's tough kid but it's life
C      A          C  D
It's a holiday in Cambodia
C     A              G F           (riff 1)
Don't forget to pack a wife

[Verse 2]
(riff 1)
You're a Star-Belly Sneech you suck like a leech
You want everyone to act like you
Kiss ass while you bitch so you can get rich 
But your boss gets richer off you
     G                         D
Well you'll work harder with a gun in your back
      G              D
For a bowl of rice a day
G                  D
Slave for soldiers till you starve
          G                     D
Then your head is skewered on a stake

[Pre-Chorus]
D           C            G      C   A
Now you can go where the people are one
D           C             G   C      A
Now you can go where they get things done
A        B        C   B
What you need, my son
A        B        C   D
What you need, my son

[Chorus]
       A       C     D
It's a holiday in Cambodia
C     A            C  D
Where people dress in black
C A          C  D
A holiday in Cambodia
C     A               G  F         riff1
Where you'll kiss ass or crack

[Instrumental]
A   C    D   F    A   C    D   F    A   C    D   F 
Pol Pot, Pol Pot, Pol Pot, Pol Pot, Pol Pot, Pol Pot, 

[Chorus]
       A          C  D
It's a holiday in Cambodia
C     A              C    D
Where you'll do what your told
C A          C  D
A holiday in Cambodia
C         A            G    F       C    A
Where the slums got so much soul    Pol  Pot

            
            
Suggest correction
Creating personal tab
Creating personal tab
You can edit any tab online and save it as your Personal.

You can edit, replace or remove any tab part or add personal notes – all changes will be seen only by you.

Personal tabs can be accessed anytime from any device, even offline.
Learn more »
comments
print report bad tab
2 comments total.
+1 reply
claux23 10 Oct 29, 2010 07:55 AM

This sounds good. Like you, I prefer to use barre as opposed to power chords.

0 reply
ozoune 31 Mar 09, 2013 08:19 PM

I think the intro sounds better like this

E-------------------------------------------------------------------------
B-------------------------------------------------------------------------
G-------------------------------------------------------------------------
D--------------------------7-7-7------------------------------------------
A----------7-6---------9-8----------------7-6---------9-8------------------
E--8-8-8-5-----8-8-8-5-----------8-8-8-5------8-8-8-5----------------------

guest
Wanna post a correction for this tab? Suggest correction