Oops, an error
Loading. Please wait.

Harvest bass

590 views 6 this week
2 commentsread comments
1 2 3 4 5
3 more votes to show rating
add to favorites
×
Save as Personal and add changes to this tab that will be seen only by you. Learn more ›
×
You can save this tab as Personal to edit and correct it or add notes. All changes will be seen only by you. Learn more »
launch autoscroll
font size
0
reset
guitar tuner
edit
Autoscroll
slow
fast
+/-
esc
set tempo
stop
Author
Difficulty
What up peeps? This is my bands third song but I only have the bass tabbed so far...
~\ = slide down trilling
*x* = let ring
(any #)x = mute

anyway, this is my band's song harvest.  We totally own and you can thank me for it. All 
credit goes to me!

INTRO
G----------------------------------------------------------------------------|
D----------------------------------------------------------------------------|
A----------------------------------------------------------------------------|
E---0-0-0-0-0-0-0-0-0-0-0-0-0-0-0-0-0-0-0-0-0-0-0-0-0-0-0-0-0-0-22-0-0-0-0-0-|

G---------------------------------------------------------------------------|
D---------------------------------------------------------------------------|
A---------------------------------------------------------------------------|
E---0-0-0-0-0-0-2-2-2-2-2-2-2-2-2-2-0-0-0-0-0-0-0-0-0-0-0-0-0-0-0-0-0-0-0-0-|

G----------------------------------------6-7-9-7-6~\------------------------|
D----------------------------------6-8-9------------------------------------|
A----------------------------6-8-9------------------------------------------|
E---12~----------------5-8-9------------------------------------------------|
GUITAR SOLO     X4
G---------------------------------------------------------------------------|
D---------------------------------------------------------------------------|
A---------------------------------------------------------------------------|
E---0-00--0-00--0-00--0-00--3-33--3-33--5-55--5-55--*4*---5457~-------------|
CHORUS
G---------------------------------------------------------------------------|
D---------------------------------------------------------------------------|
A--3-333-333-333-333-333-333-3-4-5-555-555-555-5-4-333-333-333-2x-----------|
E---------------------------------------------------------------------------|
BASS SOLO
G---------------------------------------------------------------------------|
D---0-565656565656-0-454545454545-0-3434343434-0----------------------------|
A---------------------------------------------------------------------------|
E---------------------------------------------------------------------------|
OUTRO
G--4-4-4-4-4-4-2-2-0-0-0-0-0-0-----------------------------------0-2-3-4x---|
D------------------------------4-4-2-2-2-2-2-2-0-0---------0-2-4------------|
A--------------------------------------------------4-0-2-4------------------|
E---------------------------------------------------------------------------|

            
            
Suggest correction
Creating personal tab
Creating personal tab
You can edit any tab online and save it as your Personal.

You can edit, replace or remove any tab part or add personal notes – all changes will be seen only by you.

Personal tabs can be accessed anytime from any device, even offline.
Learn more »
Give kudos to tab author, rate the tab!
1 2 3 4 5
comments
print report bad tab
2 comments total.
0 reply
Deadmoony 563 Oct 16, 2014 01:46 AM, edited on November 14 2014, 04:39 am

-

0 reply
bloblawblog1 10 May 26, 2016 12:51 PM

didn't like this contribution

guest
You may want to rate the tab now too:
select rating
Wanna post a correction for this tab? Suggest correction