Oops, an error
Loading. Please wait.

Jingle Bells bass

26,041 views 39 this week
3 commentsread comments
1 2 3 4 5
x 6
add to favorites
×
Save as Personal and add changes to this tab that will be seen only by you. Learn more ›
×
You can save this tab as Personal to edit and correct it or add notes. All changes will be seen only by you. Learn more »
launch autoscroll
font size
0
reset
guitar tuner
edit
Autoscroll
slow
fast
+/-
esc
set tempo
stop
Hey guys, this is my tab for jingle bells by my band.  I hope you like it.
E-mail mail me about my song or whatever at whichachika@yahoo.com
all credits go to me....

G---------------------------------------------------|
D---------------------------------------------------|
A---------------------------------------------------|
E---4-4-4--4-4-4--4-7-0-2-4-------------------------|

G---------------------------------------------------|
D---------------------------------------------------|
A---------------------------------------------------|
E---5-5-5-5-5-4-4--4-4-4-22427~---------------------|

G---------------------------------------------------|
D---------------------------------------------------|
A---------------------------------------------------|
E---4-4-4--4-4-4--4-7-0-2-4-------------------------|

G---------------------------------------------------|
D---------------------------------------------------|
A---------------------------------------------------|
E---5-5-5-5-5-4-4-55-7-7-5-2-0~/12------------------|

            
            
Suggest correction
Creating personal tab
Creating personal tab
You can edit any tab online and save it as your Personal.

You can edit, replace or remove any tab part or add personal notes – all changes will be seen only by you.

Personal tabs can be accessed anytime from any device, even offline.
Learn more »
comments
print report bad tab
3 comments total.
0 reply
El Gigante 72 Nov 30, 2007 12:16 PM

ha, love that slide at the end!

0 reply
zombieCB 10 Dec 24, 2007 06:06 AM

It's easier to play if you use 2 on the A string as opposed to 7 on the E.

0 reply
Deadmoony 563 Oct 16, 2014 01:49 AM

didn't like this contribution

guest
Wanna post a correction for this tab? Suggest correction