Oops, an error
Loading. Please wait.

A Green Desire tab

version 1
version 1

Whole song

467 views 1 this week
2 commentsread comments
1 2 3 4 5
x 5
add to favorites
×
Save as Personal and add changes to this tab that will be seen only by you. Learn more ›
×
You can save this tab as Personal to edit and correct it or add notes. All changes will be seen only by you. Learn more »
launch autoscroll
font size
0
reset
how to read this tab
guitar tuner
edit
Autoscroll
slow
fast
+/-
esc
set tempo
stop
Artist: Dead Poetic
Title: A Green Desire
Album: Four Wall Blackmail (Comment... MOST EXCELLENT ALBUM)
Tabber: J. Robinson, Emo Elmo033088
Tuned to standard D (D-A-D-G-B-e)
Figure out rhythm, it's not hard at all. Very fast though.
And am I the only one who listens to these guys?

 [Intro]
E| ----------------------------------------------------------------------|
B| ----------------------------------------------------------------------|
G| -10------9------7-----------------------------------------------------|
D| --9--x4--9------7------0----------------------------------------------|
A| --9------7--x3--5--x3--0----------------------------------------------|
D| --9------7------5------0----------------------------------------------|

 [Pre-Chorus]
E| ----------------------------------------------------------------------|
B| ----------------------------------------------------------------------|
G| ----------------------------------------------------------------------|
D| -11-11--11-11----11---11-11--11-11----11-----9-9--9-9----9----9-9-----|
A| --9--9---9--9-----9----9--9---9--9-----9-----7-7--7-7----7----7-7-----|
D| --9--9---9--9-----9----9--9---9--9-----9-----7-7--7-7----7----7-7-----|

E| ----------------------------------------------------------------------|
B| ----------------------------------------------------------------------|
G| ----------------------------------------------------------------------|
D| 9-9----9--------------------------------------------------------------|
A| 7-7----7--------------------------------------------------------------|
D| 7-7----7--------------------------------------------------------------|

 [Chorus] *Let chords ring
E| ----------------------------------------------------------------------|
B| ----------------------------------------------------------------------|
G| ----------------------------------------------------------------------|
D| --5-5*--------0-0*----------------------------------------------------|
A| --5-5---------0-0-----------------------------------------------------|
D|ED --5-5---------0-0-----------------------------------------------------|

 [Bridge 1]
E| ----------------------------------------------------------------------|
B| ----------------------------------------------------------------------|
G| ----------------------------------------------------------------------|
D| --7-7--7-7--7-7--7-7--7-7-7-------------------------------------------|
A| --5-5--5-5--5-5--5-5--5-5-5-------------------------------------------|
D| --5-5--5-5--5-5--5-5--5-5-5-------------------------------------------|

 [Bridge 2] *Let chords ring / End on chord 5 5 7
E| ----------------------------------------------------------------------|
B| ----------------------------------------------------------------------|
G| ----------------------------------------------------------------------|
D| --7-7*------0-0*--11-11--9-9--7---------------------------------------|
A| --5-5-------0-0----9--9--7-7--5---------------------------------------|
D| --5-5-------0-0----9--9--7-7--5---------------------------------------|

[Bridge 3]

E| ----------------------------------------------------------------------|
B| ----------------------------------------------------------------------|
G| 11--11---9---7--------------------------------------------------------|
D| -9--11---9---7--------------------------------------------------------|
A| -9--------------------------------------------------------------------|
D| -9--------------------------------------------------------------------|

Intro x6
Pre-Chorus X1
Chorus X4
Intro X4
Pre-Chorus X1
Chorus X4
Bridge 1 X4
Bridge 2 X2
Bridge 3 X9
Intro X4
Pre-Chorus X2

            
            
Suggest correction
Creating personal tab
Creating personal tab
You can edit any tab online and save it as your Personal.

You can edit, replace or remove any tab part or add personal notes – all changes will be seen only by you.

Personal tabs can be accessed anytime from any device, even offline.
Learn more »
comments
print report bad tab
2 comments total.
0 reply
xLieForOnlyYoux 10 Jun 13, 2004 08:00 PM

you're not the only one! i love dead poetic, just saw them in concert, AMAZING band

0 reply
Me2NiK 20 Jun 29, 2006 07:05 AM

I love Dead Poetic, particularily this song. THese are excellent tabs, although I have a single minor gripe: DADGBE is known as Drop D tuning, standard D tuning would be DGCFAD. Although once again, awesome tabs!

guest
You may want to rate the tab now too:
select rating
Wanna post a correction for this tab? Suggest correction