Oops, an error
Loading. Please wait.

Alien tab

64 views 1 this week
no commentswrite comment
1 2 3 4 5
3 more votes to show rating
add to favorites
×
Save as Personal and add changes to this tab that will be seen only by you. Learn more ›
×
You can save this tab as Personal to edit and correct it or add notes. All changes will be seen only by you. Learn more »
launch autoscroll
font size
0
reset
how to read this tab
guitar tuner
edit
Autoscroll
slow
fast
+/-
esc
set tempo
stop
Author
Difficulty
Artist: Dead Sara
Song: Alien
[www.deadsara.com] (go buy their music and support them!)

tabbed from: https://www.youtube.com/watch?v=rISGxnq_l1Q

This song has not been officially released yet but they have played it live several times.
Here's to hoping it makes the new record. :)

GUITAR 1- Siouxsie (uses a slide)

[Intro]

e|-------------------------|-------------------------|-------------------------|-------------------------|
B|-------------------------|-------------------------|-------------------------|-------------------------|
G|-12-12-12-12-12-12-11-10-|-10-10-10-10-10-10-10-10-|-15-15-15-15-15-15-16-17-|-17-17-17-17-17-17-17-17-| x4
D|-12-12-12-12-12-12-11-10-|-10-10-10-10-10-10-10-10-|-15-15-15-15-15-15-16-17-|-17-17-17-17-17-17-17-17-|
A|-------------------------|-------------------------|-------------------------|-------------------------|
E|-------------------------|-------------------------|-------------------------|-------------------------|

[Verse]
doesn't play during verse

[Pre-chorus]

e|-------------------------|-------------------------|-------------------------|-------------------------|
B|-------------------------|-------------------------|-------------------------|-------------------------|
G|-12-12-12-12-12-12-11-10-|-10-10-10-10-10-10-10-10-|-15-15-15-15-15-15-16-17-|-17-17-17-17-17-17-17-17-|
D|-12-12-12-12-12-12-11-10-|-10-10-10-10-10-10-10-10-|-15-15-15-15-15-15-16-17-|-17-17-17-17-17-17-17-17-|
A|-------------------------|-------------------------|-------------------------|-------------------------|
E|-------------------------|-------------------------|-------------------------|-------------------------|

e|-------------------------|-------------------------|
B|-------------------------|-------------------------|
G|-12-12-12-12-12-12-11-10-|-10-10-10-10-10-10-10-10-| 
D|-12-12-12-12-12-12-11-10-|-10-10-10-10-10-10-10-10-|
A|-------------------------|-------------------------|
E|-------------------------|-------------------------|

[Chorus]

e|-------------------------|-------------------------|-------------------------|-------------------------|
B|-------------------------|-------------------------|-------------------------|-------------------------|
G|-12-12-12-12-12-12-11-10-|-10-10-10-10-10-10-10-10-|-15-15-15-15-15-15-16-17-|-17-17-17-17-17-17-17-17-| x2
D|-12-12-12-12-12-12-11-10-|-10-10-10-10-10-10-10-10-|-15-15-15-15-15-15-16-17-|-17-17-17-17-17-17-17-17-|
A|-------------------------|-------------------------|-------------------------|-------------------------|
E|-------------------------|-------------------------|-------------------------|-------------------------|

e|---------------------------------------|    |-----------------------------|
B|--18/20\18--13/15\13--13/15\13--11--8--|    |--13/15\13--11---------------|
G|---------------------------------------| x3 |----------------2/-----------| 
D|---------------------------------------|    |----------------2/-----------|
A|---------------------------------------|    |-----------------------------|
E|---------------------------------------|    |-----------------------------|

[Verse]
doesn't play during verse

[Pre-chorus]

e|-------------------------|-------------------------|-------------------------|-------------------------|
B|-------------------------|-------------------------|-------------------------|-------------------------|
G|-12-12-12-12-12-12-11-10-|-10-10-10-10-10-10-10-10-|-15-15-15-15-15-15-16-17-|-17-17-17-17-17-17-17-17-|
D|-12-12-12-12-12-12-11-10-|-10-10-10-10-10-10-10-10-|-15-15-15-15-15-15-16-17-|-17-17-17-17-17-17-17-17-|
A|-------------------------|-------------------------|-------------------------|-------------------------|
E|-------------------------|-------------------------|-------------------------|-------------------------|

e|-------------------------|-------------------------|
B|-------------------------|-------------------------|
G|-12-12-12-12-12-12-11-10-|-10-10-10-10-10-10-10-10-| 
D|-12-12-12-12-12-12-11-10-|-10-10-10-10-10-10-10-10-|
A|-------------------------|-------------------------|
E|-------------------------|-------------------------|

[Chorus]

e|-------------------------|-------------------------|-------------------------|-------------------------|
B|-------------------------|-------------------------|-------------------------|-------------------------|
G|-12-12-12-12-12-12-11-10-|-10-10-10-10-10-10-10-10-|-15-15-15-15-15-15-16-17-|-17-17-17-17-17-17-17-17-| x2
D|-12-12-12-12-12-12-11-10-|-10-10-10-10-10-10-10-10-|-15-15-15-15-15-15-16-17-|-17-17-17-17-17-17-17-17-|
A|-------------------------|-------------------------|-------------------------|-------------------------|
E|-------------------------|-------------------------|-------------------------|-------------------------|

e|---------------------------------------|    |-----------------------------|
B|--18/20\18--13/15\13--13/15\13--11--8--|    |--13/15\13--11---------------|
G|---------------------------------------| x3 |----------------2/-----------| 
D|---------------------------------------|    |----------------2/-----------|
A|---------------------------------------|    |-----------------------------|
E|---------------------------------------|    |-----------------------------|

[Bridge]

e|-----------------|-----------------|-----------------|-----------------|
B|-----------------|-----------------|-----------------|-----------------|
G|-----------------|-----------------|-----------------|-----------------| x2
D|-----------------|-----------------|-----------------|-----------------|
A|-----------------|-----------------|-----------------|-----------------|
E|-3-3-3-3-3-3-2-1-|-1-1-1-1-1-1-1-1-|-6-6-6-6-6-6-7-8-|-8-8-8-8-8-8-8-8-|

e|---------------------------------------|    |-----------------------------|
B|--18/20\18--13/15\13--13/15\13--11--8~-|    |--13/15\13--11---------------|
G|---------------------------------------| x3 |----------------2/-----------| 
D|---------------------------------------|    |----------------2/-----------|
A|---------------------------------------|    |-----------------------------|
E|---------------------------------------|    |-----------------------------|

[Pre-chorus]
doesn't play during pre-chorus

[Chorus]

e|-------------------------|-------------------------|-------------------------|-------------------------|
B|-------------------------|-------------------------|-------------------------|-------------------------|
G|-12-12-12-12-12-12-11-10-|-10-10-10-10-10-10-10-10-|-15-15-15-15-15-15-16-17-|-17-17-17-17-17-17-17-17-| 
D|-12-12-12-12-12-12-11-10-|-10-10-10-10-10-10-10-10-|-15-15-15-15-15-15-16-17-|-17-17-17-17-17-17-17-17-|
A|-------------------------|-------------------------|-------------------------|-------------------------|
E|-------------------------|-------------------------|-------------------------|-------------------------|

e|-------------------------|-------------------------|-------------------------|
B|-------------------------|-------------------------|-------------------------|
G|-12-12-12-12-12-12-11-10-|-10-10-10-10-10-10-10-10-|-15-15-15-15-15-15-16-17-| 
D|-12-12-12-12-12-12-11-10-|-10-10-10-10-10-10-10-10-|-15-15-15-15-15-15-16-17-|
A|-------------------------|-------------------------|-------------------------|
E|-------------------------|-------------------------|-------------------------|

e|---------------------------------------|    |-----------------------------|
B|--18/20\18--13/15\13--13/15\13--11--8--|    |--13/15\13--11---------------|
G|---------------------------------------| x3 |----------------2/-----------| 
D|---------------------------------------|    |----------------2/-----------|
A|---------------------------------------|    |-----------------------------|
E|---------------------------------------|    |-----------------------------|

e|---------------------------------------|    |-----------------------------|
B|--18/20\18--13/15\13--13/15\13--11--8--|    |--13/15\13--11---------------|
G|---------------------------------------| x3 |----------------2/-----------| 
D|---------------------------------------|    |----------------2/-----------|
A|---------------------------------------|    |-----------------------------|
E|---------------------------------------|    |-----------------------------|


GUITAR 2- Emily

[Intro]

e|-----------------|-----------------|------------------|-------------------------|
B|-----------------|-----------------|------------------|-------------------------|
G|-----------------|-----------------|------------------|-------------------------| x2
D|-5-5-5-5-5-5-4-3-|-3-3-3-3-3-3-3-3-|-8-8-8-8-8-8-9-10-|-10-10-10-10-10-10-10-10-|
A|-5-5-5-5-5-5-4-3-|-3-3-3-3-3-3-3-3-|-8-8-8-8-8-8-9-10-|-10-10-10-10-10-10-10-10-|
E|-3-3-3-3-3-3-2-1-|-1-1-1-1-1-1-1-1-|-6-6-6-6-6-6-7-8--|-8--8--8--8--8--8--8--8--|

[Verse and pre-chorus]
doesn't play during verse and pre-chorus

[Chorus]

e|-----------------|-----------------|------------------|-------------------------|
B|-----------------|-----------------|------------------|-------------------------|
G|-----------------|-----------------|------------------|-------------------------| x4
D|-5-5-5-5-5-5-4-3-|-3-3-3-3-3-3-3-3-|-8-8-8-8-8-8-9-10-|-10-10-10-10-10-10-10-10-|
A|-5-5-5-5-5-5-4-3-|-3-3-3-3-3-3-3-3-|-8-8-8-8-8-8-9-10-|-10-10-10-10-10-10-10-10-|
E|-3-3-3-3-3-3-2-1-|-1-1-1-1-1-1-1-1-|-6-6-6-6-6-6-7-8--|-8--8--8--8--8--8--8--8--|


[Verse and pre-chorus]
doesn't play during verse and pre-chorus

[Chorus and Bridge]

e|-----------------|-----------------|------------------|-------------------------|
B|-----------------|-----------------|------------------|-------------------------|
G|-----------------|-----------------|------------------|-------------------------| x8
D|-5-5-5-5-5-5-4-3-|-3-3-3-3-3-3-3-3-|-8-8-8-8-8-8-9-10-|-10-10-10-10-10-10-10-10-|
A|-5-5-5-5-5-5-4-3-|-3-3-3-3-3-3-3-3-|-8-8-8-8-8-8-9-10-|-10-10-10-10-10-10-10-10-|
E|-3-3-3-3-3-3-2-1-|-1-1-1-1-1-1-1-1-|-6-6-6-6-6-6-7-8--|-8--8--8--8--8--8--8--8--|

(continues playing at the "yeah yeah yeah" part)

e|-----------------|-----------------|------------------|-------------------------|
B|-----------------|-----------------|------------------|-------------------------|
G|-----------------|-----------------|------------------|-------------------------| x4
D|-5-5-5-5-5-5-4-3-|-3-3-3-3-3-3-3-3-|-8-8-8-8-8-8-9-10-|-10-10-10-10-10-10-10-10-|
A|-5-5-5-5-5-5-4-3-|-3-3-3-3-3-3-3-3-|-8-8-8-8-8-8-9-10-|-10-10-10-10-10-10-10-10-|
E|-3-3-3-3-3-3-2-1-|-1-1-1-1-1-1-1-1-|-6-6-6-6-6-6-7-8--|-8--8--8--8--8--8--8--8--|


************************************
| /   Slide up
| \   Slide down
| ~   Vibrato
************************************

            
            
Suggest correction
Creating personal tab
Creating personal tab
You can edit any tab online and save it as your Personal.

You can edit, replace or remove any tab part or add personal notes – all changes will be seen only by you.

Personal tabs can be accessed anytime from any device, even offline.
Learn more »
Give kudos to tab author, rate the tab!
1 2 3 4 5
comments
print report bad tab
guest
You may want to rate the tab now too:
select rating
Wanna post a correction for this tab? Suggest correction