Oops, an error
Loading. Please wait.

Goodbye Regret bass

1,058 views 1 this week
1 commentread comment
1 2 3 4 5
1 last vote to show rating
add to favorites
×
Save as Personal and add changes to this tab that will be seen only by you. Learn more ›
×
You can save this tab as Personal to edit and correct it or add notes. All changes will be seen only by you. Learn more »
launch autoscroll
font size
0
reset
guitar tuner
edit
Autoscroll
slow
fast
+/-
esc
set tempo
stop
Author
Band: dead to me
Album: cuban ballerina
Song: goodbye regret

Please rate

Intro:

G|----------------------------------|
D|----------------------------------| 
A|-----5--------5--------5--------5-|
E|-7-77-757-7-77-757-7-77-757-7-77--|

G|-----7--------7--------7----------|
D|-9-99-979-9-99-979-9-99-979-9-99--| 
A|--------------------------------5-|
E|----------------------------------|

Verse (0:09)

G|----------------------------------|
D|----------------------------------| 
A|-2-222222222222225555555500000000-|
E|----------------------------------|

G|----------------------------------|
D|----------------4-44-44445-55-555-| 
A|-2-2222222222222------------------|
E|----------------------------------|

G|----------------------------------|
D|----------------------------------| 
A|-2-222222222222225555555500000000-|
E|----------------------------------|

G|----------------------------------|
D|----------------4-44-44445-55-555-| 
A|-2-2222222222222------------------|
E|----------------------------------|

G|----------------------------------|
D|-44444444555555554444444455555555-| 
A|----------------------------------|
E|----------------------------------|

G|----------------------------------|
D|-4444444455555555-44-44-44-44-----|   
A|------------------------------54--|
E|----------------------------------|

G|----------------------------------|
D|---------4444444455555555---------| 
A|-22222222-----------------7-5-4-2-|  ??
E|----------------------------------|

G|-4444442-4444442-4444442-44-------|
D|---------------------------224455-| 
A|----------------------------------|
E|----------------------------------|

G|----------------------------------|
D|----------------------------------|
A|-22222222-------------------------|  
E|---------222222223333333300000000-| 

(Note: listen for timing on 0’s during first repeat)

Repeat all of above

Then:

Bridge: (1:52)

G|---------------------4466----4466-|
D|-----------------4477----4477-----| 
A|-5.-------------------------------|
E|----------------------------------|

G|-77777777666666664444444433333333-|
D|----------------------------------| 
A|----------------------------------| x2
E|----------------------------------|

Ending: (2:09)

G|----------------------------------|
D|----------------------------------| 
A|-----5--------5--------5--------5-|
E|-7-77-757-7-77-757-7-77-757-7-77--|

G|-----7--------7--------7--------------|
D|-9-99-979-9-99-979-9-99-979-9-9-------| 
A|--------------------------------5-4-2-|
E|--------------------------------------|

            
            
Suggest correction
Creating personal tab
Creating personal tab
You can edit any tab online and save it as your Personal.

You can edit, replace or remove any tab part or add personal notes – all changes will be seen only by you.

Personal tabs can be accessed anytime from any device, even offline.
Learn more »
Give kudos to tab author, rate the tab!
1 2 3 4 5
comments
print report bad tab
1 comment total.
0 reply
ramrodTM 129 Apr 25, 2009 03:12 PM

great job!

guest
You may want to rate the tab now too:
select rating
Wanna post a correction for this tab? Suggest correction