Oops, an error
Loading. Please wait.

No Rainbow tab

version 2
version 2

Whole song

190 views 1 this week
no commentswrite comment
1 2 3 4 5
3 more votes to show rating
add to favorites
×
Save as Personal and add changes to this tab that will be seen only by you. Learn more ›
×
You can save this tab as Personal to edit and correct it or add notes. All changes will be seen only by you. Learn more »
launch autoscroll
font size
0
reset
how to read this tab
guitar tuner
edit
Autoscroll
slow
fast
+/-
esc
set tempo
stop
INTRO
e|----------------------------|-------------------------------| 
B|-----------------------2----|-------------------------------|
G|---4-------4-----4--4-------|------------------------2------| 
D|---4-------4-----4--4-------|----4-------4-----4--4---------| 
A|---2----2--2-----2--2-------|----4-------4-----4--4---------| 
E|----------------------------|----2----2--2-----2--2---------| 

e|----------------------------|-------------------------------|  
B|-----------------------2----|-------------------------------| 
G|---4-------4-----4--4-------|------------------------2------|  
D|---4-------4-----4--4-------|----4-------4-----4--4---------|  
A|---2----2--2-----2--2-------|----4-------4-----4--4---------|  
E|----------------------------|----2----2--2-----2--2---------|

VERSE ONE
e|----------------------------|-------------------------------|  
B|-----------------------2----|-------------------------------| 
G|---4-------4-----4--4-------|------------------------2------|  
D|---4-------4-----4--4-------|----4-------4-----4--4---------|  
A|---2----2--2-----2--2-------|----4-------4-----4--4---------|  
E|----------------------------|----2----2--2-----2--2---------|

e|----------------------------|-------------------------------|  
B|-----------------------2----|-------------------------------| 
G|---4-------4-----4--4-------|------------------------2------|  
D|---4-------4-----4--4-------|----4-------4-----4--4---------|  
A|---2----2--2-----2--2-------|----4-------4-----4--4---------|  
E|----------------------------|----2----2--2-----2--2---------|

e|----------------------------|-------------------------------| 
B|-----------------------4----|------------------------2------| 
G|---6-------6-----6--6-------|---4-------4------4--4---------| 
D|---6-------6-----6--6-------|---4-------4------4--4---------| 
A|---4----4--4-----4--4-------|---2----2--2------2--2---------| 
E|----------------------------|-------------------------------| 

e|----------------------------|-------------------------------| 
B|----------------------------|-------------------------------| 
G|----------------------------|--------------------------2----| 
D|---4-------4-------4--------|------4-----4--4----4--4-------| 
A|---4-------4-------4--------|------4-----4--4----4--4-------| 
E|---2----2--2-------2--------|---2--2-----2--2----2--2-------| 

e|----------------------------|-------------------------------| 
B|-----------------------4----|------------------------2------| 
G|---6-------6-----6--6-------|---4-------4------4--4---------| 
D|---6-------6-----6--6-------|---4-------4------4--4---------| 
A|---4----4--4-----4--4-------|---2----2--2------2--2---------| 
E|----------------------------|-------------------------------| 

e|----------------------------|-------------------------------| 
B|----------------------------|-------------------------------| 
G|----------------------------|--------------------------2----| 
D|---4-------4-------4--------|------4-----4--4----4--4-------| 
A|---4-------4-------4--------|------4-----4--4----4--4-------| 
E|---2----2--2-------2--------|---2--2-----2--2----2--2-------| 

VERSE TWO
e|----------------------------|-------------------------------|  
B|-----------------------2----|-------------------------------| 
G|---4-------4-----4--4-------|------------------------2------|  
D|---4-------4-----4--4-------|----4-------4-----4--4---------|  
A|---2----2--2-----2--2-------|----4-------4-----4--4---------|  
E|----------------------------|----2----2--2-----2--2---------|

e|----------------------------|-------------------------------|  
B|-----------------------2----|-------------------------------| 
G|---4-------4-----4--4-------|------------------------2------|  
D|---4-------4-----4--4-------|----4-------4-----4--4---------|  
A|---2----2--2-----2--2-------|----4-------4-----4--4---------|  
E|----------------------------|----2----2--2-----2--2---------|

e|----------------------------|-------------------------------| 
B|-----------------------4----|------------------------2------| 
G|---6-------6-----6--6-------|---4-------4------4--4---------| 
D|---6-------6-----6--6-------|---4-------4------4--4---------| 
A|---4----4--4-----4--4-------|---2----2--2------2--2---------| 
E|----------------------------|-------------------------------| 

e|----------------------------|-------------------------------| 
B|----------------------------|-------------------------------| 
G|----------------------------|--------------------------2----| 
D|---4-------4-------4--------|------4-----4--4----4--4-------| 
A|---4-------4-------4--------|------4-----4--4----4--4-------| 
E|---2----2--2-------2--------|---2--2-----2--2----2--2-------| 

e|----------------------------|-------------------------------| 
B|-----------------------4----|------------------------2------| 
G|---6-------6-----6--6-------|---4-------4------4--4---------| 
D|---6-------6-----6--6-------|---4-------4------4--4---------| 
A|---4----4--4-----4--4-------|---2----2--2------2--2---------| 
E|----------------------------|-------------------------------| 

e|----------------------------|-------------------------------| 
B|----------------------------|-------------------------------| 
G|----------------------------|--------------------------2----| 
D|---4-------4-------4--------|------4-----4--4----4--4-------| 
A|---4-------4-------4--------|------4-----4--4----4--4-------| 
E|---2----2--2-------2--------|---2--2-----2--2----2--2-------| 

CHORUS 
e|----------------------------|-------------------------------|  
B|-----------------------2----|-------------------------------| 
G|---4-------4-----4--4-------|-------------------------2-----|  
D|---4-------4-----4--4-------|----4-------4-----4--4---------|  
A|---2----2--2-----2--2-------|----4-------4-----4--4---------|  
E|----------------------------|----2----2--2-----2--2---------|

e|----------------------------|-------------------------------|  
B|-----------------------2----|-------------------------------| 
G|---4-------4-----4--4-------|------------------------2------|  
D|---4-------4-----4--4-------|----4-------4-----4--4---------|  
A|---2----2--2-----2--2-------|----4-------4-----4--4---------|  
E|----------------------------|----2----2--2-----2--2---------|

e|----------------------------|-------------------------------| 
B|-------------------------2--|-------------------------------| 
G|---4---------4----4--4------|-----------------------2-------| 
D|---4------4--4----4--4------|---4-------4-----4--4----------| 
A|---2---2-----2----2--2------|---4-------4-----4--4----------| 
E|----------------------------|---2----2--2-----2--2----------| 

e|----------------------------|-------------------------------| 
B|-----------------------4----|-------------------------------| 
G|---6-------6-----6--6-------|-------------------------------| 
D|---6-------6-----6--6-------|---4---------------------------| 
A|---4----4--4-----4--4-------|---4---------------------------| 
E|----------------------------|---2---------------------------| 

VERSE THREE
e|----------------------------|-------------------------------|  
B|-----------------------2----|-------------------------------| 
G|---4-------4-----4--4-------|------------------------2------|  
D|---4-------4-----4--4-------|----4-------4-----4--4---------|  
A|---2----2--2-----2--2-------|----4-------4-----4--4---------|  
E|----------------------------|----2----2--2-----2--2---------|

e|----------------------------|-------------------------------|  
B|-----------------------2----|-------------------------------| 
G|---4-------4-----4--4-------|------------------------2------|  
D|---4-------4-----4--4-------|----4-------4-----4--4---------|  
A|---2----2--2-----2--2-------|----4-------4-----4--4---------|  
E|----------------------------|----2----2--2-----2--2---------|

e|----------------------------|-------------------------------| 
B|-----------------------4----|------------------------2------| 
G|---6-------6-----6--6-------|---4-------4------4--4---------| 
D|---6-------6-----6--6-------|---4-------4------4--4---------| 
A|---4----4--4-----4--4-------|---2----2--2------2--2---------| 
E|----------------------------|-------------------------------| 

e|----------------------------|-------------------------------| 
B|----------------------------|-------------------------------| 
G|----------------------------|--------------------------2----| 
D|---4-------4-------4--------|------4-----4--4----4--4-------| 
A|---4-------4-------4--------|------4-----4--4----4--4-------| 
E|---2----2--2-------2--------|---2--2-----2--2----2--2-------| 

e|----------------------------|-------------------------------| 
B|-----------------------4----|------------------------2------| 
G|---6-------6-----6--6-------|---4-------4------4--4---------| 
D|---6-------6-----6--6-------|---4-------4------4--4---------| 
A|---4----4--4-----4--4-------|---2----2--2------2--2---------| 
E|----------------------------|-------------------------------| 

e|----------------------------|-------------------------------| 
B|----------------------------|-------------------------------| 
G|----------------------------|--------------------------2----| 
D|---4-------4-------4--------|------4-----4--4----4--4-------| 
A|---4-------4-------4--------|------4-----4--4----4--4-------| 
E|---2----2--2-------2--------|---2--2-----2--2----2--2-------| 

VERSE FOUR
e|----------------------------|-------------------------------|  
B|-----------------------2----|-------------------------------| 
G|---4-------4-----4--4-------|------------------------2------|  
D|---4-------4-----4--4-------|----4-------4-----4--4---------|  
A|---2----2--2-----2--2-------|----4-------4-----4--4---------|  
E|----------------------------|----2----2--2-----2--2---------|

e|----------------------------|-------------------------------|  
B|-----------------------2----|-------------------------------| 
G|---4-------4-----4--4-------|------------------------2------|  
D|---4-------4-----4--4-------|----4-------4-----4--4---------|  
A|---2----2--2-----2--2-------|----4-------4-----4--4---------|  
E|----------------------------|----2----2--2-----2--2---------|

e|----------------------------|-------------------------------| 
B|-----------------------4----|------------------------2------| 
G|---6-------6-----6--6-------|---4-------4------4--4---------| 
D|---6-------6-----6--6-------|---4-------4------4--4---------| 
A|---4----4--4-----4--4-------|---2----2--2------2--2---------| 
E|----------------------------|-------------------------------| 

e|----------------------------|-------------------------------| 
B|----------------------------|-------------------------------| 
G|----------------------------|--------------------------2----| 
D|---4-------4-------4--------|------4-----4--4----4--4-------| 
A|---4-------4-------4--------|------4-----4--4----4--4-------| 
E|---2----2--2-------2--------|---2--2-----2--2----2--2-------| 

e|----------------------------|-------------------------------| 
B|-----------------------4----|------------------------2------| 
G|---6-------6-----6--6-------|---4-------4------4--4---------| 
D|---6-------6-----6--6-------|---4-------4------4--4---------| 
A|---4----4--4-----4--4-------|---2----2--2------2--2---------| 
E|----------------------------|-------------------------------| 

e|----------------------------|-------------------------------| 
B|----------------------------|-------------------------------| 
G|----------------------------|--------------------------2----| 
D|---4-------4-------4--------|------4-----4--4----4--4-------| 
A|---4-------4-------4--------|------4-----4--4----4--4-------| 
E|---2----2--2-------2--------|---2--2-----2--2----2--2-------| 

CHORUS
e|----------------------------|-------------------------------| 
B|-----------------------2----|-------------------------------| 
G|---4-------4-----4--4-------|------------------------2------| 
D|---4-------4-----4--4-------|----4-------4-----4--4---------| 
A|---2----2--2-----2--2-------|----4-------4-----4--4---------| 
E|----------------------------|----2----2--2-----2--2---------| 

e|----------------------------|-------------------------------| 
B|-------------------------2--|-------------------------------| 
G|---4---------4----4--4------|-----------------------2-------| 
D|---4------4--4----4--4------|---4-------4-----4--4----------| 
A|---2---2-----2----2--2------|---4-------4-----4--4----------| 
E|----------------------------|---2----2--2-----2--2----------| 

e|----------------------------|-------------------------------|
B|-----------------------4----|-------------------------------| 
G|---6-------6-----6--6-------|-----------------------------2-| 
D|---6-------6-----6--6-------|---4-------4-----4-----4--4----| 
A|---4----4--4-----4--4-------|---4-------4-----4-----4--4----| 
E|----------------------------|---2----2--2-----2-----2--2----| 

e|----------------------------|-------------------------------| 
B|-----------------------2----|-------------------------------| 
G|---4-------4-----4--4-------|------------------------2------| 
D|---4-------4-----4--4-------|----4-------4-----4--4---------| 
A|---2----2--2-----2--2-------|----4-------4-----4--4---------| 
E|----------------------------|----2----2--2-----2--2---------| 

e|----------------------------|-------------------------------| 
B|-----------------------2----|-------------------------------| 
G|---4-------4-----4--4-------|------------------------2------| 
D|---4-------4-----4--4-------|----4-------4-----4--4---------| 
A|---2----2--2-----2--2-------|----4-------4-----4--4---------| 
E|----------------------------|----2----2--2-----2--2---------| 

e|----------------------------|-------------------------------| 
B|-------------------------2--|-------------------------------| 
G|---4---------4----4--4------|-----------------------2-------| 
D|---4------4--4----4--4------|---4-------4-----4--4----------| 
A|---2---2-----2----2--2------|---4-------4-----4--4----------| 
E|----------------------------|---2----2--2-----2--2----------| 

e|----------------------------|-------------------------------|
B|-----------------------4----|-------------------------------| 
G|---6-------6-----6--6-------|-----------------------------2-| 
D|---6-------6-----6--6-------|---4-------4-----4-----4--4----| 
A|---4----4--4-----4--4-------|---4-------4-----4-----4--4----| 
E|----------------------------|---2----2--2-----2-----2--2----|

OUTRO
e|----------------------------|-------------------------------| 
B|-----------------------2----|-------------------------------|
G|---4-------4-----4--4-------|------------------------2------| 
D|---4-------4-----4--4-------|----4-------4-----4--4---------| 
A|---2----2--2-----2--2-------|----4-------4-----4--4---------| 
E|----------------------------|----2----2--2-----2--2---------| 

e|----------------------------|-------------------------------| 
B|-----------------------2----|-------------------------------|
G|---4-------4-----4--4-------|------------------------2------| 
D|---4-------4-----4--4-------|----4-------4-----4--4---------| 
A|---2----2--2-----2--2-------|----4-------4-----4--4---------| 
E|----------------------------|----2----2--2-----2--2---------| 

e|----------------------------|-------------------------------| 
B|-----------------------2----|-------------------------------|
G|---4-------4-----4--4-------|------------------------2------| 
D|---4-------4-----4--4-------|----4-------4-----4--4---------| 
A|---2----2--2-----2--2-------|----4-------4-----4--4---------| 
E|----------------------------|----2----2--2-----2--2---------| 

e|----------------------------|-------------------------------| 
B|-----------------------4----|-------------------------------| 
G|---6-------6-----6--6-------|-----------------------2-------| 
D|---6-------6-----6--6-------|---4-------4-----4--4----------| 
A|---4----4--4-----4--4-------|---4-------4-----4--4----------| 
E|----------------------------|---2----2--2-----2--2----------| 

e|----------------------------|-------------------------------| 
B|-----------------------2----|-------------------------------|
G|---4-------4-----4--4-------|------------------------2------| 
D|---4-------4-----4--4-------|----4-------4-----4--4---------| 
A|---2----2--2-----2--2-------|----4-------4-----4--4---------| 
E|----------------------------|----2----2--2-----2--2---------| 

e|----------------------------|-------------------------------| 
B|-----------------------2----|-------------------------------|
G|---4-------4-----4--4-------|------------------------2------| 
D|---4-------4-----4--4-------|----4-------4-----4--4---------| 
A|---2----2--2-----2--2-------|----4-------4-----4--4---------| 
E|----------------------------|----2----2--2-----2--2---------| 

e|----------------------------|-------------------------------| 
B|-----------------------2----|-------------------------------|
G|---4-------4-----4--4-------|------------------------2------| 
D|---4-------4-----4--4-------|----4-------4-----4--4---------| 
A|---2----2--2-----2--2-------|----4-------4-----4--4---------| 
E|----------------------------|----2----2--2-----2--2---------| 

e|----------------------------|-------------------------------| 
B|-----------------------4----|-------------------------------| 
G|---6-------6-----6--6-------|-------------------------------| 
D|---6-------6-----6--6-------|---4---------------------------| 
A|---4----4--4-----4--4-------|---4---------------------------| 
E|----------------------------|---2---------------------------| 

Lyrics 
Baby,
I'm pale and still
My blood's all run down the drain
My blood's all run down the drain

Baby,
It's raining, I hear it
Falling
But I think it's blood

No rainbow
It's raining skulls
When the raining stops,
There will be no rainbow

Baby,
I'm pale and still
You were an iron maiden
You were an iron maiden

Baby,
You're pale and still
Open up your eyes and smile
Open up your eyes and cry

No rainbow
It's raining skulls
When the raining stops,
There will be no rainbow

************************************

| x   Dead note
| g   Grace note
| (n) Ghost note
| h   Hammer-on
| p   Pull-off
| r   Release
| >   Accented note
| t   Tapping
| b   Bend
| br  Bend release
| pb  Pre-bend
| pbr Pre-bend release
| /   Slide up
| \   Slide down
| ~   Vibrato
| s   Slap
| P   Pop
| PM  Palm mute
| TR  Trill
| N   Tremolo

************************************

            
            
Suggest correction
Creating personal tab
Creating personal tab
You can edit any tab online and save it as your Personal.

You can edit, replace or remove any tab part or add personal notes – all changes will be seen only by you.

Personal tabs can be accessed anytime from any device, even offline.
Learn more »
Give kudos to tab author, rate the tab!
1 2 3 4 5
comments
print report bad tab
guest
You may want to rate the tab now too:
select rating
Wanna post a correction for this tab? Suggest correction