Oops, an error
Loading. Please wait.

Hail To The Geek tab

version 1
version 1

Whole song

Interactive

3,444 views 1 this week
no commentswrite comment
1 2 3 4 5
x 3
add to favorites
×
Save as Personal and add changes to this tab that will be seen only by you. Learn more ›
×
You can save this tab as Personal to edit and correct it or add notes. All changes will be seen only by you. Learn more »
launch autoscroll
font size
0
reset
how to read this tab
guitar tuner
edit
Autoscroll
slow
fast
+/-
esc
set tempo
stop
Author
Difficulty
Song: Hail to the Geek
Band: Deaf Pedestrians
Tabbed by: xenocide92

Standard Tuning: EADGBe

Key:
h...hammer on
p...pull off
~...I was lazy and didn't wanna find out the
    strumming pattern (It's easy, you can figure it out)
\...slide up (pitch goes down)
/...slide down (pitch goes up)

Notes:
1. The Guitar 1 Part on the Bridge may not be 100%, just comment if somethings wrong, 
be a loser.
2. Some of the long strumming chords I didn't put in the number of times you play that 
because I believe in you.
3. Have Fun!

Questions?
Email: metalicide@gmail.com


Intro:
|-7--7-7-7--7-7-6--6-6-6--6-6-4--4-4-4--4-4-7--7-7--7-7-7-7-7-|
|-------------------------------------------------------------|
|-8--8-8-8--8h9-6--6-6-6--6h8-4--4-4-4--4h6-8--8-9--9-9-9-9-9-|
|-------------------------------------------------------------|
|-------------------------------------------------------------|
|-------------------------------------------------------------|

Verse 1: "I got a Spider-Man T-Shirt..."
|-7--7-7-7--7-7-6--6-6-6--6-6-4--4-4-4--4-4-7--7-7--7-7-7-7-7-|
|-------------------------------------------------------------|
|-8--8-8-8--8h9-6--6-6-6--6h8-4--4-4-4--4h6-8--8-9--9-9-9-9-9-|
|-------------------------------------------------------------| X2
|-------------------------------------------------------------|
|-------------------------------------------------------------|

Chorus 1: "It's Good to be a Geek!"
|----------------------|
|----------------------|
|-4~----------9~----4~-|
|-4~----4~----9~----4~-| X2
|-2~----4~----7~----2~-|
|-------2~-------------|

Verse 2: "I play Dungeons & Dragons..."
Guitar 1:
|-7--7-7-7--7-7-6--6-6-6--6-6-4--4-4-4--4-4-7--7-7--7-7-7-7-7-|
|-------------------------------------------------------------|
|-8--8-8-8--8h9-6--6-6-6--6h8-4--4-4-4--4h6-8--8-9--9-9-9-9-9-|
|-------------------------------------------------------------| X2
|-------------------------------------------------------------|
|-------------------------------------------------------------|
Guitar 2: Play Only Second Time
|-------------------------------------------------------------|
|-------------------------------------------------------------|
|-4~--------------------------9~------------4~----------------|
|-4~------------4~------------9~------------4~----------------|
|-2~------------4~------------7~------------2~----------------|
|---------------2~--------------------------------------------|

Chorus 2: "It's Good to be a Geek!"
|----------------------|
|----------------------|
|-4~----------9~----4~-|
|-4~----4~----9~----4~-| X2
|-2~----4~----7~----2~-|
|-------2~-------------|

Bridge 1: "Someday I'll learn to play guitar..."

!!! THESE PARTS ARE NOT LINED UP !!!

Guitar 1:
|--------------------------------|   |----------------|
|---9-------9-------7-------6----|   |----------------|
|-8---8---8---8---6---6---5---5--|   |----------------|
|-------6-------5-------4--------|X4 |----------------|
|--------------------------------|   |----------------|
|--------------------------------|   |----------------|
Guitar 2:
|------------------------------|     |----------------|
|------------------------------|     |----------------|
|-6666------------4444---------|     |-2222222222222\-|
|-6666----4444----4444----2222-|X4   |-2222222222222\-|
|-4444----4444----2222----2222-|     |-0000000000000\-|
|---------2222------------0000-|     |----------------|

Verse 3: "I'm addicted to Star Trek..."
Guitar 1:
|-7--7-7-7--7-7-6--6-6-6--6-6-4--4-4-4--4-4-7--7-7--7-7-7-7-7-|
|-------------------------------------------------------------|
|-8--8-8-8--8h9-6--6-6-6--6h8-4--4-4-4--4h6-8--8-9--9-9-9-9-9-|
|-------------------------------------------------------------| X2
|-------------------------------------------------------------|
|-------------------------------------------------------------|
Guitar 2: Play Both Times
|-------------------------------------------------------------|
|-------------------------------------------------------------|
|-4~--------------------------9~------------4~----------------|
|-4~------------4~------------9~------------4~----------------| X2
|-2~------------4~------------7~------------2~----------------|
|---------------2~--------------------------------------------|

Chorus 3: "Well, I Never Get the Girl..."
|----------------------|
|----------------------|
|-4~----------9~----4~-|
|-4~----4~----9~----4~-| X2
|-2~----4~----7~----2~-|
|-------2~-------------|

Bridge 2: "Someday I'll Learn to Play Guitar..."
Guitar 1:
|--------------------------------|
|---9-------9-------7-------6----|
|-8---8---8---8---6---6---5---5--|
|-------6-------5-------4--------| X4
|--------------------------------|
|--------------------------------|
Guitar 2:
|------------------------------|
|------------------------------|
|-6666------------4444---------|
|-6666----4444----4444----2222-| X4
|-4444----4444----2222----2222-|
|---------2222------------0000-|

Bridge 3: "Ninth Grade is When I Got The Swirley..."

!! These Parts Are NOT Lined Up !!

Guitar 1:
|------------------------------------------------|
|---9-------9-------7-------6-----9-------9------|
|-8---8---8---8---6---6---5---5-8---8---8---8----|
|-------6-------5-------4-------------6-------5--|
|------------------------------------------------|
|------------------------------------------------|
Guitar 2:
|---------------------------------------------------|
|---------------------------------------------------|
|-6666------------4444------------6666------------4-|
|-6666----4444----4444----2222----6666----4444----4-|
|-4444----4444----2222----2222----4444----4444----2-|
|---------2222------------0000------------2222------|

Little Guitar Pause: "Wore Nine Pairs of Briefs So They Could All Get A Turn"

Bridge 3 cont.: "Someday I'll Buy A Fancy Condo..."

!! These Parts Are NOT Lined Up !!

Guitar 1:
|--------------------------------|
|---9-------9-------7-------6----|
|-8---8---8---8---6---6---5---5--|
|-------6-------5-------4--------| X3
|--------------------------------|
|--------------------------------|
Guitar 2:
|------------------------------------------------------------------|
|------------------------------------------------------------------|
|-6666------------4444------------6666------------4444444444444444-|
|-6666----4444----4444----2222----6666----4444----4444444444444444-|
|-4444----4444----2222----2222----4444----4444----2222222222222222-|
|---------2222------------0000------------2222---------------------|

KEY CHANGE: "It's Good To Make Some Noise..."
|----------------------|
|----------------------|
|-4~----------9~----4~-|
|-4~----4~----9~----4~-| X4
|-2~----4~----7~----2~-|
|-------2~-------------|

Outro: "I Got A Bad Moustache..."
Guitar 1:
|-7--7-7-7--7-7-6--6-6-6--6-6-4--4-4-4--4-4-7--7-7--7-7-7-7-7-|
|-------------------------------------------------------------|
|-8--8-8-8--8h9-6--6-6-6--6h8-4--4-4-4--4h6-8--8-9--9-9-9-9-9-|
|-------------------------------------------------------------|
|-------------------------------------------------------------|
|-------------------------------------------------------------|

|------------------------------------------------------------------------------------------|
|------7-------------7-------------7---------------10------10------------12----14p12----12-|
|------------------------------------------------9----9-------9----8/11--------------------|
|----9-------------9---9---------9---9--------11--------11------11----------13-------13----|
|------------------------------------------------------------------------------------------|
|------------------------------------------------------------------------------------------|

Guitar 2: Play Both Times
|-------------------------------------------------------------|
|-------------------------------------------------------------|
|-4~--------------------------9~------------4~----------------|
|-4~------------4~------------9~------------4~----------------| X2
|-2~------------4~------------7~------------2~----------------|
|---------------2~--------------------------------------------|

            
            
Suggest correction
Creating personal tab
Creating personal tab
You can edit any tab online and save it as your Personal.

You can edit, replace or remove any tab part or add personal notes – all changes will be seen only by you.

Personal tabs can be accessed anytime from any device, even offline.
Learn more »
Give kudos to tab author, rate the tab!
1 2 3 4 5
comments
print report bad tab
guest
You may want to rate the tab now too:
select rating
Wanna post a correction for this tab? Suggest correction